Oops, an error
Loading. Please wait.

Town Of Lincoln Tab

by Cog
608 views 3 this week
no commentswrite comment
1 2 3 4 5
please rate
add to favorites
launch autoscroll
font size
0
reset
how to read this tab
guitar tuner
Autoscroll
slow
fast
+/-
esc
set tempo
stop
Help us to improve Ultimate-Guitar.com Take our survey!
×
Author
Tuning
C G C F A D
-------------------------------------------------------------------------------
                             TOWN OF LINCOLN - Cog
-------------------------------------------------------------------------------
Tabbed by: Corbin Nesa
Email: c_nesa@hotmail.com

       This is a tab i did quite a while ago, suddenly got the urge to finally submit it

Tuning: Drop C

(n) - Hold note

Intro - repeat as many times as necessary, slowly release PM at end
D|-----------------------------------------------------------------------|
A|-----------------------------------------------------------------------|
F|-----------------------------------------------------------------------|
C|--0--0--0--0--0--0--0--0--0--0--0--0--0--0--0--0--0--0--0--0--0--0--0--|
G|-----------------------------------------------------------------------|
C|-----------------------------------------------------------------------|
          ....................................................    

D|--10---------7---10---------7---10---------7---10---------7-(7)/10--|
A|--------------------------------------------------------------------|
F|-------7h9p7----------7h9p7----------7h9p7----------7h9p7-----------|
C|--------------------------------------------------------------------|
G|--------------------------------------------------------------------|
C|--------------------------------------------------------------------|

D|--------7---10---------7---10---------7---10---------5-(5)/9--|
A|--------------------------------------------------------------|
F|--7h9p7----------7h9p7----------7h9p7----------7h9p7----------|
C|--------------------------------------------------------------|
G|--------------------------------------------------------------|
C|--------------------------------------------------------------|

D|-------------9--------------9--------------9-------------------|
A|--------10-------------10-------------10-------------10-10-10--|
F|--7h9p7----------7h9p7----------7h9p7----------7h9p7-----------|
C|---------------------------------------------------------------|
G|---------------------------------------------------------------|
C|---------------------------------------------------------------|

D|---------------------------------------------------|
A|-7-----------7-----------7-----------7-------------|
F|---------9-----------9-----------9-----------9/14--|
C|-----7h9---------7h9---------7h9---------7h9-------|
G|---------------------------------------------------|
C|---------------------------------------------------|

D|-------------------------------------------------------------------|
A|--------------------8---8-7-7-----------------------8---8-7-7------|
F|--6-6-6-7-7-7-----------------9-9-6-6-6-7-7-7-----------------9-9--|
C|--------------9-9-9---------------------------9-9-9----------------|
G|-------------------------------------------------------------------|
C|-------------------------------------------------------------------|
   .................................................................

D|---------------------------------------------------------------------|
A|--------------------8---8-7-7----------------------------------------|
F|--6-6-6-7-7-7-----------------9-9-----6-(6)-6-(6)-6-(6)-6-(6)-6s9s7--|
C|--------------9-9-9--------------------------------------------------|
G|---------------------------------------------------------------------|
C|---------------------------------------------------------------------|
   .................................

D|---------7~---------------------------------------------7~--|
A|---------7~---------------------------------------------7~--|
F|---------7~---------------------------------------------7~--|
C|---------9~------------------------------0--------------9~--|
G|-----------------------------------------0------------------|
C|--9----------------------------------------------9----------|

D|---------------2----------2-----------0-----------0---------|
A|--2~---------------2----------2-------0-----------0---------|
F|--2~-------------------2----------2---0-----------0---------|
C|--4~----------------------------------2-----------2---------|
G|--4~----------------------------------2-----------2---------|
C|------------------------------------------------------------|

D|------------| X14
A|-7----------|
F|---------9--|
C|-----7h9----|
G|------------|
C|------------|

D|-----------------------|
A|-----------------------|
F|--6-6-6-6-6-6-6--7-7\--|
C|-----------------x-x---|
G|-----------------5-5\--|
C|-----------------------|

D|------------------------------------------------------------------|
A|------------------------------------------------------------------|
F|--6h7p6------6h7p6------6h7p6--------6h7p6--------6h7p6--9-9---9--|
C|--------7----------5----------7/9----------7/9--------------------|
G|------------------------------------------------------------------|
C|------------------------------------------------------------------| X3


D|------------------------------------------|
A|------------------------------------------|
F|--6h7p6------6h7p6------6h7p6-------------|
C|--------7----------5----------4--4--4--4--|
G|------------------------------4--4--4--4--|
C|------------------------------4--4--4--4--|

Clean

D|--------7-------7/14------------------3-3p2-2--------0-----2-2p0-0---|
A|--------7-------7--------------2---------------------0---------------|
F|--------7-------7--------------2---------------------0---------------|
C|--------9-------9--------------4---------------------2---------------|
G|-------------------------------4---------------------2---------------|
C|---9---------------------4---------------------2---------------------|

D|--------0------------------------------------7-------7/14---------------|
A|--------0-------3-2--3--5p3------------------7-------7------------------|
F|--------0-------------------4----------------7-------7------------------|
C|--------2---------------------4--------------9-------9------------------|
G|--------2---------------------------------------------------------------|
C|---0-----------------------------------9--------------------------------|

D|----------------7-7\2-2--------0------2-2p0-0--------------|
A|--------2----------------------0---------------------------|
F|--------2----------------------0---------------------------|
C|--------4----------------------2---------------------------|
G|--------4----------------------2---------------------------|
C|---4---------------------2---------------------0-----------|

Then just repeat some of the other parts above


Outro
D|----------------------7-------------------------------------|
A|----------------------7-------------------------------------|
F|----------------------7-------------------------------------|
C|--0-0---0---0-0---0---9-------------------------------------|
G|--0-0---0---0-0---0-----------------------------------------|
C|--0-0---0---0-0---0-----------------------------------------|



| /  slide up
| \  slide down
| h  hammer-on
| p  pull-off
| ~  vibrato
| +  harmonic
| x  Mute note
===============================================================================
Suggest correction
Give kudos to tab author, rate the tab!
1 2 3 4 5
comments
print report bad tab
guest
You may want to rate the tab now too:
select rating
Please do not post tabs as comments. Select "correction" instead!