Oops, an error
Loading. Please wait.

2113 Bass Tab

version 1
version 1

Whole song

Interactive

3,359 views 1 this week
no commentswrite comment
1 2 3 4 5
please rate
add to favorites
launch autoscroll
font size
0
reset
guitar tuner
Tab Pro tools
  • play this tab
  • loop segment
  • change instrument
  • show fretboard
  • metronome
×
Best way to learn
"2113"
Autoscroll
slow
fast
+/-
esc
set tempo
stop
Contributor
Tuning
D A D G B E
I Found this on Cobalt and Calcium thought id share it with you all!
Amazing bassline really proves what Mic Todd can do.



2113 (Bassline)
                        As recorded by Coheed and Cambria
           (From the 2003 Album IN KEEPING SECRETS OF SILENT EARTH 3)

Words by Claudio Sanchez
Music by Coheed and Cambria
Transcribed by sprinklerthief

Gtr I (D A D G) - 'elec.'

 Intro
  Moderate Rock Q=78
 4/4
  Gtr I
  S S S S +H.        S S S S +H      Q     S H..       S
|------------------|---------------------|----------------|
|------------------|---------------------|----------------|
|-------6-(6)------|-------6-(6)---------|-------------6--|
|-8-8-8------------|-8-8-8----------15\--|-0--------------|


  S S H..         S S S S S S E E E E E   E E E E E E S S S S
|---------------|-----------------------|----------------------|
|---------------|-----------------------|----------------------|
|-6-------------|---6-5-5-----5-------5-|-------5-------5-6-8--|
|---------------|---------5-------5-----|---5-------5----------|


  S S S S S S E E E E  E   S S S S S S E E E E E   E S S S S E E E E E
|------------------------|-----------------------|---------------------|
|------------------------|-----------------------|---------------------|
|---6-6-6-----6---8---10-|---6-6-6-----6---8---6-|---6-5-----5-------5-|
|---------6--------------|---------6-------------|-------5-------5-----|


                        Verse
  E E E E E E S S S S    S S S S S S E E E E E   E E E E E E E E
|---------------------||-----------------------|-----------------|
|---------------------||-----------------------|-----------------|
|-------5-------5-6-8-||---6-6-6-----6---6---6-|---6---6---6---6-|
|---5-------5---------||---------6-------------|-----------------|


  E S S S S E E E E E   E E E E E E E E   S S S S S S E E E E E
|---------------------|-----------------|-----------------------|
|---------------------|-----------------|-----------------------|
|---6-5-----5-------5-|-------5-------5-|---6-6-6-----6-------6-|
|-------5-------5-----|---5-------5-----|---------6-----0-0-----|


  E E E E E E E E   E S S S S E E E E E   E E E E E E E E
|-----------------|---------------------|-----------------|
|-----------------|---------------------|-----------------|
|---6---6---6---6-|---6-5-----5-------5-|-------5-------5-|
|-----------------|-------5-------5-----|---5-------5-----|


  S S S S S S E E E E  E   S S S S S S E E E E  E   E S S S S E E E E E
|------------------------|------------------------|---------------------|
|------------------------|------------------------|---------------------|
|---6-6-6-----6---8---10-|---6-6-6-----6---8---10-|---6-5-----5-------5-|
|---------6--------------|---------6--------------|-------5-------5-----|


  E E E E E E S S S S   S S S S S S E E E E E   E E E E E E E E
|---------------------|-----------------------|-----------------|
|---------------------|-----------------------|-----------------|
|-------5-------5-6-8-|---6-6-6-----6---6---6-|---6---6---6---6-|
|---5-------5---------|---------6-------------|-----------------|


  E S S S S E E E E E   E E E E E E S S S S
|---------------------|---------------------||
|---------------------|---------------------||
|---6-5-----5---5---5-|-------5---5---5-6-8-||
|-------5-------------|---5-----------------||


   Pre-Chorus
    $
    S S S S S S S S S S S S S S S S   S S S S S S S S S S S S S S S S
||----------------------------------|---------------------------------|
||o---------------------------------|---------------------------------|
||o-6-6-6-6-6-6-6-6-6-6-6-6-6-6-6-6-|-6-6-6-6-6-6-6-6-6-6-6-6-6-6-6---|
||----------------------------------|-------------------------------0-|


                                                           To Coda
  S S S S S S S S S S S S S S S S   S S S S S S S S S S S S S S S S
|---------------------------------|----------------------------------||
|---------------------------------|---------------------------------o||
|---------------------------------|---------------------------------o||
|-5-5-5-5-5-5-5-5-5-5-5-5-5-5-5-5-|-5-5-5-5-5-5-5-5-5-5-5-5-5-5-5-0--||


 Interlude
  S S S S H.        W          E S S S S E E E E E
|-----------------|----------|---------------------|
|---8-------------|----------|---------------------|
|-6---6-----------|----------|---6-5-----5-------5-|
|-----------------|----------|-------5-------5-----|


                        Verse
  E E E E E E S S S S    S S S S S S E E E E E   E E E E E E E E
|---------------------||-----------------------|-----------------|
|---------------------||-----------------------|-----------------|
|-------5-------5-6-8-||---6-6-6-----6---6---6-|---6---6---6---6-|
|---5-------5---------||---------6-------------|-----------------|


  E S S S S E E E E E   E E E E E E S S S S   S S S S S S e e e E E
|---------------------|---------------------|-----------------------|
|---------------------|---------------------|-----------------------|
|---6-5-----5-------5-|-------5-------5-6-8-|---6-6-6-------------6-|
|-------5-------5-----|---5-------5---------|---------6---0-2-3-----|


                                            D.S. al Coda
  E E E E E E E E   E S S S S E E E E E   E E E E E E E E
|-----------------|---------------------|-----------------||
|-----------------|---------------------|-----------------||
|---6---6---6---6-|---6-5-----5-------5-|-------5-------5-||
|-----------------|-------5-------5-----|---5-------5-----||


 Chorus
  &
  S S S S S S S S S S S S S S S S   S S S S S S S S S S S S S S S S
|---------------------------------|---------------------------------|
|---------------------------------|-----4-----2-----0-----2-----2p0-|
|-6-5-----6-5-----6-5-----6-5-----|-2-2---2-2---2-2---2-2---2-2-----|
|-----0-0-----0-0-----0-0-----0-0-|---------------------------------|


  S S S S S S S S S  S S S S S S S   S S S S S S S S S S S S S S S S
|----------------------------------|---------------------------------|
|----------------------------------|---------------------------------|
|-----7---9---7---9-10-9---7---9---|---------------------------------|
|-7-7---7---7---7--------7---7---7-|-5-5-5-5-5-5-5-5-4-4-4-4-4-4-4-4-|


    S S S S S S S S S S S S S S S S   S S S S S S S S S S S S S S S S
||----------------------------------|---------------------------------|
||o---------------------------------|---------------------------------|
||o-6-5-----6-5-----6-5-----6-5-----|-2-2-2-2-2-2-2-2-2-2-2-2-2-2-2-2-|
||------0-0-----0-0-----0-0-----0-0-|---------------------------------|


                                    1.
  S S S S S S S S S S S S S S S S   S S S S S S S S S S S S S S S S
|---------------------------------|----------------------------------||
|---------------------------------|---------------------------------o||
|-0-0-0-0-0-0-0-0-0-0-0-0-0-0-0-0-|---------------------------------o||
|---------------------------------|-5-5-5-5-5-5-5-5-4-4-4-4-4-4-4-4--||


  2.
  S S S S S S S S S S S S S S S S
|---------------------------------||
|---------------------------------||
|---------------------------------||
|-5-5-5-5-5-5-5-5-4-4-4-4-4-4-5-7-||


 Guitar Break
  W          W          H..        E
|----------|----------|---------------|
|----------|----------|---------------|
|----------|----------|-----------12\-|
|-0--------|-0--------|-0-------------|


  S S S S S S S S S S S S S S S S   S S S S E E S S S S E E
|---------------------------------|--------------------------|
|---------------------------------|--------------------------|
|---------------------------------|--------------------------|
|-0h3h5-0h3h5-0h3h5-0h3h5-0h3h5-0h|=3h5-0h3-0-0-0h3h5p3-0-0--|


    S S S S S S S S S S S S S S S S   S S S S E E S S S S E E
||----------------------------------|--------------------------||
||o---------------------------------|-------------------------o||
||o---------------------------------|-------------------------o||
||--3h5-0h3h5-0h3h5-0h3h5-0h3h5-0h3h|=5-0h3h5-0-0-0h3h5p3-0-0--||


   Interlude
    S S S S S S S S S S S S S S T T S   S S S S S S S S S S S S S S T T S
||------------------------------------|-----------------------------------|
||o-----------------------------------|-----------------------------------|
||o-----------------------------------|-----------------------------------|
||--3-2---3-2---3-2---3-2-3-5-5-3-2-0-|-3-2---3-2---3-2---3-2-3-5-5-3-2-0-|


  S S S S S S S S S S S S S S S S   S S S S S S S S S S S S S S S S
|---------4-4---------------------|---------4-4----------------------||
|-----7-7-----5-5-7-7-------------|-----7-7-----5-5-7-7-------------o||
|-5-5-----------------5-5-3-3-0-0-|-5-5-----------------5-5-3-3-0-0-o||
|---------------------------------|----------------------------------||


 Breakdown
  W          W          H    H
|----------|----------|-----------|
|----------|----------|-----------|
|----------|-5--------|-3----2----|
|-0--------|----------|-----------|


  S S S S S S S S E E E E   S S S S S S S S E E E E
|-------------------------|-------------------------|
|---------3-5-------------|---------3-5-------------|
|-5-5-5-------5-5-5-----3-|-5-5-5-------5-5-5-----3-|
|-------------------3-5---|-------------------3-5---|


  Q  Q  Q  Q    Q   Q   Q   Q    H    H
|-------7-----|----------------|-----------|
|----7-----7--|-0--------------|-----------|
|-------------|----12--15--12--|-3----2----|
|-0-----------|----------------|-----------|
  W             W


    S S S S S S S S E E E E   S S S S S S S S E E E E   S S S E. S S E E E E
||--------------------------|-------------------------|-----------------------|
||o---------3-5-------------|---------3-5-------------|-----------------------|
||o-5-5-5-------5-5-5-----3-|-5-5-5-------5-5-5-----3-|-----------------------|
||--------------------3-5---|-------------------3-5---|-1-1-1----1-1-1-1-3-1--|


  1.                       2.
  S S S E. S S E E E E     S S S E. S S E S S e E
|-----------------------||------------------------||
|----------------------o||------------------------||
|----------------------o||------------------------||
|-1-1-1----1-1-1-3-5-3--||-1-1-1----1-1-1-3-3-3-3-||


 Guitar Solo
                  |-3-| |-3-| |-3-|
  S S S S S S S S S S S S S S S S S E
|-------------------------------------|
|-----------------0-2-4-0-4-5-7-5-4---|
|-----------------------------------7-|
|-0h2h4-0h5h7h9-0---------------------|


  |-3-| |-3-| |-3-| |3| |-3-| |-3-| |-3-|
  S S S S S S S S S S E S S S S S S S S S E
|-2p0-0-----------------------7---7p6p4------|
|-------5p4-4-4p2-2-2p0----------------------|
|-----------------------6h7h9-----------9p7--|
|--------------------------------------------|


   |--3--|  |--3--|  |--3--|     |-3--|  |-3--|  |-3--|  |-3--|
   S  S  S  S  S  S  S  S  S  E  S  S S  S  S S  S  S S  S  S S
|-------11-12-14-12-11----------12-11-9---------12-11-9---------|
|---------------------------------------12-10-9---------12-10-9-|
|----12----------------12-10------------------------------------|
|-12-------------------------12---------------------------------|


 2/4
   |---3----|  |-3--|
   e  e  S  S  S  S S  E
|-------------------------||
|-12-12-12-12-12-10-9-----||
|---------------------12--||
|-------------------------||


   Interlude
    Slower Q.=65
   9/8                      15/16
    S S S e S E S E. E. E.   S S S e S E S S +E  E.  4x
||-------------------------|-------------------------||
||o------------------------|------------------------o||
||o------------------------|---------------------5--o||
||--0-5-7-8-8-7-5-7--3--0--|-0-5-7-8-8-7-5-7-(7)-----||


 Time Consumer
  Time Consumer Beat Q=80
 6/4             4/4
  W.               S  E.  E  S  S E  E  E  S S
|---------------|------------------------------|
|---------------|------------------------------|
|---------------|--------12-12---------12------|
|-0-------------|-12-12--------12---12----12---|


   S  S S  S  E.  S S  S  S  S  E  E
|-------------------------------------|
|-------------------------------------|
|------------12-----------------------|
|-12-12---12-----12---14-15-14-15-14\-|


  Q  S S S E E E E S   S S S S S S S e e E S S S   Q  E. S S S E S S S  S
|--------------------|---------------------------|------------------------|
|--------------------|---------------------------|------------------------|
|----8---------------|-----------------------7h8-|----8----------8-7-8s10-|
|-8----8-8-8-7-5-3-2-|-0-0-0-0-5-5-5-3-2-0-------|-8-----8---x-8----------|


   E  E  E  S  S S  S  S  S  E  +E     H     H       W
|------------------------------------|------------|--------||
|------------------------------------|------------|--------||
|-------10---------------12----------|------------|-<5>----||
|-10-10----10-10---10-12----12-(12)\-|-5----10----|--0-----||


   Pre-Chorus
    A Tempo Q=78
    S S S S S S S S S S S S S S S S   S S S S S S S S S S S S S S S S
||----------------------------------|---------------------------------|
||o---------------------------------|---------------------------------|
||o-6-6-6-6-6-6-6-6-6-6-6-6-6-6-6-6-|-6-6-6-6-6-6-6-6-6-6-6-6-6-6-6---|
||----------------------------------|-------------------------------0-|


  S S S S S S S S S S S S S S S S   S S S S S S S S S S S S S S S S
|---------------------------------|---------------------------------|
|---------------------------------|---------------------------------|
|---------------------------------|---------------------------------|
|-5-5-5-5-5-5-5-5-5-5-5-5-5-5-5-5-|-5-5-5-5-5-5-5-5-5-5-5-5-5-5-5-0-|


  1.ster Q=137
  S S S S S S S S S S S S S S S S   S S S S S S S S S S S S S S S S
|---------------------------------|---------------------------------|
|---------------------------------|---------------------------------|
|-5-x-x-x-5-x-x-x-x-5-x-5-x-x-x-x-|-5-x-x-x-5-x-x-x-x-5-x-5-x-x-x-x-|
|---------------------------------|---------------------------------|


  S S S S S S S S S S S S S S S S   S S S S S S S S S S S S S S S S
|---------------------------------|----------------------------------||
|---------------------------------|---------------------------------o||
|-5-x-x-x-5-x-x-x-x-5-x-5-x-x-x-x-|-5-x-x-x-5-x-x-x-x-5-x-5-x-x-x-x-o||
|---------------------------------|----------------------------------||


  2.
  S S S S S S S S S S S S S S S S   S S S S S S S S S S S S S S S S
|---------------------------------|---------------------------------|
|---------------------------------|---------------------------------|
|-5-x-x-x-5-x-x-x-x-6-x-6-x-x-x-x-|-5-x-x-x-5-x-x-x-8-6-x-6-x-x-x-x-|
|---------------------------------|---------------------------------|


  S S S S S S S S S S S S S S S S   S S S S S S S S S S S S S S S S
|---------------------------------|---------------------------------|
|---------------------------------|---------------------------------|
|-5-x-x-x-5-x-x-x-x-6-x-6-x-x-x-x-|-5-x-x-x-5-x-x-x-x-5-x-5-x-x-x-x-|
|---------------------------------|---------------------------------|


    A Tempo Q=78
    S S S S S S S S S S S S S S S S   S S S S S S S S S S S S S S S S
||----------------------------------|---------------------------------|
||o---------------------------------|---------------------------------|
||o-6-6-6-6-6-6-6-6-6-6-6-6-6-6-6-6-|-6-6-6-6-6-6-6-6-6-6-6-6-6-6-6---|
||----------------------------------|-------------------------------0-|


  S S S S S S S S S S S S S S S S   S S S S S S S S S S S S S S S S
|---------------------------------|----------------------------------||
|---------------------------------|---------------------------------o||
|---------------------------------|---------------------------------o||
|-5-5-5-5-5-5-5-5-5-5-5-5-5-5-5-5-|-5-5-5-5-5-5-5-5-5-5-5-5-5-5-5-0--||


 Out-Chorus
  S S S S S S S S S S S S S S S S   S S S S S S S S S S S S S S S S
|---------------------------------|---------------------------------|
|---------------------------------|-----4-----2-----0-----2-----2p0-|
|-6-5-----6-5-----6-5-----6-5-----|-2-2---2-2---2-2---2-2---2-2-----|
|-----0-0-----0-0-----0-0-----0-0-|---------------------------------|


  S S S S S S S S S  S S S S S S S   S S S S S S S S S S S S S S S S
|----------------------------------|---------------------------------|
|----------------------------------|---------------------------------|
|-----7---9---7---9-10-9---7---9---|---------------------------------|
|-7-7---7---7---7--------7---7---7-|-5-5-5-5-5-5-5-5-4-4-4-4-4-4-4-4-|


    S S S S S S S S S S S S S S S S   S S S S S S S S S S S S S S S S
||----------------------------------|---------------------------------|
||o---------------------------------|---------------------------------|
||o-6-5-----6-5-----6-5-----6-5-----|-2-2-2-2-2-2-2-2-2-2-2-2-2-2-2-2-|
||------0-0-----0-0-----0-0-----0-0-|---------------------------------|


  S S S S S S S S S S S S S S S S   S S S S S S S S S S S S S S S S
|---------------------------------|----------------------------------||
|---------------------------------|---------------------------------o||
|-0-0-0-0-0-0-0-0-0-0-0-0-0-0-0-0-|---------------------------------o||
|---------------------------------|-5-5-5-5-5-5-5-5-4-4-4-4-4-4-4-4--||


  S S S S S S S S S S S S S S S S   S S S S S S S S S S S S S S S S
|---------------------------------|---------------------------------|
|---------------------------------|-----4-----2-----0-----2-----2p0-|
|-6-5-----6-5-----6-5-----6-5-----|-2-2---2-2---2-2---2-2---2-2-----|
|-----0-0-----0-0-----0-0-----0-0-|---------------------------------|


  S S S S S S S S S  S S S S S S S   S S S S S S S S S S S S S S S S
|----------------------------------|---------------------------------||
|----------------------------------|---------------------------------||
|-----7---9---7---9-10-9---7---9---|---------------------------------||
|-7-7---7---7---7--------7---7---7-|-5-5-5-5-5-5-5-5-4-4-4-4-4-4-4-4-||


             Outro (I, Robot)
  Slower Q=68
             6/8
  W           Q  E Q  E   Q  E Q.     Q  E Q  E   Q  E Q.
|----------||-----------|-----------|-----------|-----------|
|----------||-----------|-----------|-----------|-----------|
|----------||-8--8-8--x-|-8----0----|-8--8-8--8-|-8--8-0----|
|-0--------||-----------|-----------|-----------|-----------|


    Q  E Q  E   Q  E Q  E   Q  E Q  E   Q  E Q  E   4x
||------------|-----------|-----------|-------------||
||o-----------|-----------|-----------|------------o||
||o-8--8-8--8-|-8--8-0--0-|-8--8-8--8-|-8--8-0--0--o||
||------------|-----------|-----------|-------------||


  H.=H                    Free Time Q=50
  Q  E Q  E   Q  E Q.     +H.        +H.        +H.
|-----------|-----------|----------|----------|--------*|
|-----------|-----------|----------|----------|--------*|
|-8--8-8--8-|-8--8-0----|-(0)------|-(0)------|-(0)----*|
|-----------|-----------|----------|----------|--------*|


Duration Legend
---------------
W - whole; H - half; Q - quarter; E - 8th; S - 16th; T - 32nd; X - 64th; a - acciaccatura
+ - note tied to previous; . - note dotted; .. - note double dotted
Uncapitalized letters represent notes that are staccato (1/2 duration)
Irregular groupings are notated above the duration line
Duration letters will always appear directly above the note/fret number it represents the
duration for.  Duration letters with no fret number below them represent rests.  Multi-
bar rests are notated in the form Wxn, where n is the number of bars to rest for.  Low
melody durations appear below the staff

Tablature Legend
----------------
 h   - hammer-on
 p   - pull-off
 b   - bend
 pb  - pre-bend
 r   - bend release (if no number after the r, then release immediately)
 /\  - slide into or out of (from/to "nowhere")
 s   - legato slide
 S   - shift slide
  - natural harmonic
[n]  - artificial harmonic
n(n) - tapped harmonic
 ~   - vibrato
 tr  - trill
 T   - tap
 TP  - trem. picking
 PM  - palm muting
\n/  - tremolo bar dip; n = amount to dip
 \n  - tremolo bar down
 n/  - tremolo bar up
/n\  - tremolo bar inverted dip
 =   - hold bend; also acts as connecting device for hammers/pulls
 <>  - volume swell (louder/softer)
 x   - on rhythm slash represents muted slash
 o   - on rhythm slash represents single note slash

Misc Legend
-----------
 |  - bar
||  - double bar
||o - repeat start
o|| - repeat end
*|  - double bar (ending)
 :  - bar (freetime)
 $  - Segno
 &  - Coda
Tempo markers -  = BPM(8/16=s8/s16), where s8 = swing 8ths, s16 = swing 16ths
comments
We did not receive enough feedback on this tab! Please rate:
print report bad tab
1 2 3 4 5
I want to post or [tab]
guest
You may want to rate the tab now too:
select rating
Please do not post tabs as comments. Select "correction" instead!