Oops, an error
Loading. Please wait.

3 3 Bass Tab

version 1
version 1

Whole song

Interactive

1,309 views 6 this week
1 commentread comment
1 2 3 4 5
accurate
x 3
add to favorites
launch autoscroll
font size
0
reset
guitar tuner
Autoscroll
slow
fast
+/-
esc
set tempo
stop
Help us to improve Ultimate-Guitar.com Take our survey!
×
Author
Gtr I (D A D G) - 'elec.'

 Intro
  Moderate Rock Q=85
 4/4
  Gtr I
  S S S S S S S S S S S S S S S S   S S S S S S S S S S S S S S S S
|---------------------------------|----------------------------------|
|-------------------3-----3-------|-------------------3-2-0---0------|
|-1-1---1-1---1-1-----1-1---1-1-1-|-1-1---1-1---1-1---------3---3-0--|
|---------------------------------|----------------------------------|


  S S S S S S S S S S S S S S S S   S S S S S S S S S S S S S S S S
|---------------------------------|---------------------------------|
|---------------------------------|---------------------------------|
|---------------------------------|---------------------------------|
|-4-4-4-4-4-4-4-4-4-4-4-4-4-4-4-4-|-4-4-4-4-4-4-4-4-4-4-4-4-4-4-4-4-|


  S S S S S S S S S S S S S S S S   S S S S S S S S S S S S S S S S
|---------------------------------|---------------------------------|
|-------------------3-----3-------|-------------------3-2-0---0-----|
|-1-1---1-1---1-1-----1-1---1-1-1-|-1-1---1-1---1-1---------3---3-0-|
|---------------------------------|---------------------------------|


  S S S S S S S S S S S S S S S S   S S S S S S S S S S S S S S S S
|---------------------------------|---------------------------------||
|---------------------------------|-----------------4-4-4-4---------||
|---------------------------------|-4-4-4-4-4-4-4-4---------4-4-4-4-||
|-4-4-4-4-4-4-4-4-4-4-4-4-4-4-4-4-|---------------------------------||


   Verse 1
    S S S S S S S S S S S S S S S S   S S S S S S S S S S S S S S S S
||----------------------------------|----------------------------------|
||o-------------------3-----3-------|-------------------3-2-0---0------|
||o-1-1---1-1---1-1-----1-1---1-1-1-|-1-1---1-1---1-1---------3---3-0--|
||----------------------------------|----------------------------------|


  S S S S S S S S S S S S S S S S   S S S S S S S S S S S S S S S S  3x
|---------------------------------|----------------------------------||
|---------------------------------|---------------------------------o||
|---------------------------------|---------------------------------o||
|-4-4-4-4-4-4-4-4-4-4-4-4-4-4-4-4-|-4-4-4-4-4-4-4-4-4-4-4-4-4-4-4-4--||


  S S S S S S S S S S S S S S S S   S S S S S S S S S S S S S S S S
|---------------------------------|---------------------------------|
|-------------------3-----3-------|-------------------3-2-0---0-----|
|-1-1---1-1---1-1-----1-1---1-1-1-|-1-1---1-1---1-1---------3---3-0-|
|---------------------------------|---------------------------------|


  S S S S S S S S S S S S S S S S   S S S S S S S S S S S S S S S S
|---------------------------------|---------------------------------||
|---------------------------------|-----------------4-4-4-4---------||
|---------------------------------|-4-4-4-4-4-4-4-4---------4-4-4-4-||
|-4-4-4-4-4-4-4-4-4-4-4-4-4-4-4-4-|---------------------------------||


 Chorus
  E E S S S E S S S S S S S   S S S S S S  S  S S S S S S S S S
|---------------------------|-----------------------------------|
|---6-6-4-3-----------------|-----------------------------------|
|-4-------------------------|-----------------------------------|
|-----------6-6-6-6-6-6-6-6-|-8-8---8-8---11-11---4-4---4-4-4-4-|


  E E S S S E S S S S S S S   Q  H    E E
|---------------------------|--------------||
|---6-6-4-3-3---------------|--------------||
|-4-------------------------|-----------9\-||
|-------------6-6-6-6-8-8-8-|-4------------||


   Verse 2
    S S S S S S S S S S S S S S S S   S S S S S S S S S S S S S S S S
||----------------------------------|----------------------------------|
||o-------------------3-----3-------|-------------------3-2-0---0------|
||o-1-1---1-1---1-1-----1-1---1-1-1-|-1-1---1-1---1-1---------3---3-0--|
||----------------------------------|----------------------------------|


  S S S S S S S S S S S S S S S S   S S S S S S S S S S S S S S S S
|---------------------------------|----------------------------------||
|---------------------------------|---------------------------------o||
|---------------------------------|---------------------------------o||
|-4-4-4-4-4-4-4-4-4-4-4-4-4-4-4-4-|-4-4-4-4-4-4-4-4-4-4-4-4-4-4-4-4--||


  E H..         H    S S S S S S S S
|-------------|----------------------|
|-------------|--------3-2-0---0-----|
|-1-----------|--------------3---3-0-|
|-------------|----------------------|


  S S S S S S S S S S S S S S S S   S S S S S S S S S S S S S S S S
|---------------------------------|---------------------------------||
|---------------------------------|---------------------------------||
|---------------------------------|---------------------------------||
|-4-4-4-4-4-4-4-4-4-4-4-4-4-4-4-4-|-4-4-4-4-4-4-4-4-4-4-4-4-4-4-4-4-||


 Chorus 2
  E E S S S E S S S S S S S   S S S S S S  S  S S S S S S S S S
|---------------------------|-----------------------------------|
|---6-6-4-3-----------------|-----------------------------------|
|-4-------------------------|-----------------------------------|
|-----------6-6-6-6-6-6-6-6-|-8-8---8-8---11-11---4-4---4-4-4-4-|


  E E S S S E S S S S S S S   S S S S S S S S S S S S S S S S
|---------------------------|---------------------------------|
|---6-6-4-3-----------------|---------------------------------|
|-4-------------------------|---------------------------------|
|-----------6-6-6-6-6-8-8-8-|-4-4-4-4-4-4-4-4-4-4-4-4-4-4-4-4-|


  E E S S S E S S S S S S S   S S S S S S  S  S S S S S S S S S
|---------------------------|-----------------------------------|
|---6-6-4-3-----------------|-----------------------------------|
|-4-------------------------|-----------------------------------|
|-----------6-6-6-6-6-6-6-6-|-8-8---8-8---11-11---4-4---4-4-4-4-|


  E E S S S E S S S S S S S   S S S S S S S S S S S S S S S S
|---------------------------|---------------------------------|
|---6-6-4-3-----------------|---------------------------------|
|-4-------------------------|---------------------------------|
|-----------6-6-6-6-6-8-8-8-|-4-4-4-4-4-4-4-4-4-4-4-4-4-4-4-4-|


  S S S S S S S S S S S S S S S S
|----------------------------------||
|----------------------------------||
|----------------------------------||
|-4-4-4-4-4-4-4-4-4-4-4-4-4-4-4-4--||


   Breakdown
    S S S S S S S S S S S S S E.   S S S S S S S S S S S S S S S S   3x
||-------------------------------|-----------------------------------||
||o------------------------------|----------------------------------o||
||o-4-4-4-3-3-3------------------|----------------------------------o||
||--------------6-6-6-8-8-8-3-3--|-4-4-4-4-4-4-4-4-4-4-4-4-4-4-4-4---||


  S S S S S S S S S S S S S E.   S S S S S S S S S S S S S S S S
|------------------------------|---------------------------------|
|------------------------------|-------------------------4-4-4-4-|
|-4-4-4-3-3-3------------------|---------------------------------|
|-------------6-6-6-8-8-8-3-3--|-4-4-4-4-4---4-4---4-4-----------|


  S S S S S S S S S S S S S S S S
|---------------------------------|
|-------------------------4-4-4-4-|
|---------------------------------|
|-4-4-4-4-4---4-4---4-4-----------|


  S S S S S S S S S S S S S S S S   S S S S H.
|---------------------------------|---------------||
|-------------------------4-4-4-4-|---------4-----||
|---------------------------------|---------------||
|-4-4-4-4-4---4-4---4-4-----------|-3-3h4h6-------||


   Out-Chorus
    E E S S S E S S S S S S S   S S S S S S  S  S S S S S S S S S
||----------------------------|-----------------------------------|
||o---6-6-4-3-----------------|-----------------------------------|
||o-4-------------------------|-----------------------------------|
||------------6-6-6-6-6-6-6-6-|-8-8---8-8---11-11---4-4---4-4-4-4-|


  E E S S S E S S S S S S S   S S S S S S S S S S S S S S S S
|---------------------------|----------------------------------||
|---6-6-4-3-----------------|---------------------------------o||
|-4-------------------------|---------------------------------o||
|-----------6-6-6-6-6-8-8-8-|-4-4-4-4-4-4-4-4-4-4-4-4-4-4-4-4--||


  E E S S S E S S S S S S S   S S S S S S  S  S S S S S S S S S
|---------------------------|-----------------------------------|
|---6-6-4-3-----------------|-----------------------------------|
|-4-------------------------|-----------------------------------|
|-----------6-6-6-6-6-6-6-6-|-8-8---8-8---11-11---4-4---4-4-4-4-|


  E E S S S E S S S S E.   W          +W           +W           +W
|------------------------|----------|------------|------------|--------*|
|---6-6-4-3--------------|----------|------------|------------|--------*|
|-4----------------------|----------|------------|------------|--------*|
|-----------6-6-6-6-6-8--|-4--------|-(4)--------|-(4)--------|-(4)----*|


Duration Legend
---------------
W - whole; H - half; Q - quarter; E - 8th; S - 16th; T - 32nd; X - 64th; a - acciaccatura
+ - note tied to previous; . - note dotted; .. - note double dotted
Uncapitalized letters represent notes that are staccato (1/2 duration)
Irregular groupings are notated above the duration line
Duration letters will always appear directly above the note/fret number it represents the
duration for.  Duration letters with no fret number below them represent rests.  Multi-
bar rests are notated in the form Wxn, where n is the number of bars to rest for.  Low
melody durations appear below the staff

Tablature Legend
----------------
 h   - hammer-on
 p   - pull-off
 b   - bend
 pb  - pre-bend
 r   - bend release (if no number after the r, then release immediately)
 /\  - slide into or out of (from/to "nowhere")
 s   - legato slide
 S   - shift slide
  - natural harmonic
[n]  - artificial harmonic
n(n) - tapped harmonic
 ~   - vibrato
 tr  - trill
 T   - tap
 TP  - trem. picking
 PM  - palm muting
\n/  - tremolo bar dip; n = amount to dip
 \n  - tremolo bar down
 n/  - tremolo bar up
/n\  - tremolo bar inverted dip
 =   - hold bend; also acts as connecting device for hammers/pulls
 <>  - volume swell (louder/softer)
 x   - on rhythm slash represents muted slash
 o   - on rhythm slash represents single note slash

Misc Legend
-----------
 |  - bar
||  - double bar
||o - repeat start
o|| - repeat end
*|  - double bar (ending)
 :  - bar (freetime)
 $  - Segno
 &  - Coda
Tempo markers -  = BPM(8/16=s8/s16), where s8 = swing 8ths, s16 = swing 16ths



Suggest correction
Give kudos to tab author, rate the tab!
1 2 3 4 5
comments
print report bad tab
1 comment total.
+2 reply
literamaniac 10 wrote on July 15 2008, 11:57 pm

The song's not in Drop D, so you'd have to play every note on the E string two frets lower

guest
You may want to rate the tab now too:
select rating
Wanna post a correction for this tab? Suggest correction