Oops, an error
Loading. Please wait.

A Favor House Atlantic Tab

version 1
version 1

Acoustic

33,671 views 18 this week
2 commentsread comments
1 2 3 4 5
x 9
add to favorites
launch autoscroll
font size
0
reset
how to read this tab
guitar tuner
Autoscroll
slow
fast
+/-
esc
set tempo
stop
Help us to improve Ultimate-Guitar.com Take our survey!
×
Author
Song: A Favor House Atlantic (Acoustic)
Artist: Coheed and Cambria
Album: N/A, Misc. Youtube Videos
Tabbed by: Zapfire

Here is the acoustic tab, the strumming is pretty simple, you can figure it out, but 
do my best to tab it out for you

guys. I find playing it acoustically much more enjoyable than the other like the album 
hopefully you do too.

This will not perfect for everyone, as they play it many different ways, but it is a 
as you can get to a usual playing.

Also, I find it best to play 1/2 step down, however it can be played standard as well.

Intro, Claudio
e|-----0-0--0-0-0----------------|
B|-----0-0--0-0-0----------------|
G|-----6-6--6-6-6-4h6------------|
D|-----6-6--6-6-6----4~-4--------|
A|---4-4-4--4-4-0---------7-6-4~-|
E|-------------------------------|x3

Intro, Travis (Only played on 3rd time around)
e|-11h12p11---11---9b-9----------|
B|----------12--12------9--------|
G|------------------------9h11p9-|
D|-------------------------------|
A|-------------------------------|
E|-------------------------------|


Verse, Claudio (Here are the chords, just strum them how you think they should be strummed)
e|-0---0-0-|
B|-0---0-0-|
G|-2---4-6-|
D|-2---4-6-|
A|-0---2-4-|
E|---------|x4

Verse, Travis (Play first bit twice, second bit twice)
e|-------------------|-----------------------------------------7--------------------------------|
B|-------------------|--10---10p9--12p9--14p9--12p9--10p9----------7---7----------9-9---9-------|
G|-9--11-13--9--11-13|--9--9-----9-----9-----9-----9-----9---8-------8---8----9---9-9-9---9\----|
D|-------------------|--------------------------------------------------------------------------|
A|-------------------|--------------------------------------------------------------------------|
E|-------------------|--------------------------------------------------------------------------|

Pre/Post Chorus, Claudio
e|-0-|
B|-0-|
G|-2-|
D|-2-|
A|-0-|
E|---| (He just fiddles with this chord, Im unsure if travis plays anything here)

Chorus, Claudio
e|-0-0-------------------------------|
B|-0-0-------------------------------|
G|-1-1-------------------------------|
D|-2-2-x-x-7-7-x-x-11-11-x-x-9-9-x-x-|
A|-2-2-x-x-7-7-x-x-11-11-x-x-9-9-x-x-|
E|-0-0-x-x-5-5-x-x-9--9--x-x-7-7-x-x-|x3

Chorus, Travis
e|-4-4-----5-5-----7--7------2-2-----|
B|-5-5-----5-5-----5--5------5-5-----|
G|-----------------------------------|
D|-----------------------------------|
A|-----------------------------------|
E|-----------------------------------|x3

*Repeat Pre/Post Chorus*

Bridge, Claudio
e|-0-0-0--0-0-0--0-0---0-0---|
B|-0-0-0--0-0-0--0-0---0-0---|
G|-6-6-6--6-6-6--4-4-x-2-2-x-|
D|-6-6-6--6-6-6--4-4-x-2-2-x-|
A|-4-4-4--0-0-0--0-0-x-0-0-x-|
E|---------------------------|x3

Bridge, Travis (Only played 3rd time through)
e|-11h12p11---11---9b-9----------|
B|----------12--12------9--------|
G|------------------------9h11p9-|
D|-------------------------------|
A|-------------------------------|
E|-------------------------------|

*Repeat Verse*
*Repeat Chorus*

Break, Claudio (Here are the chords)
e|-0-0-0-0--0-0-0-0-|
B|-0-0-0-0--0-0-0-0-|
G|-1-2-1-6--x-2-2-4-|
D|-2-2-2-6--4-2-2-4-|
A|-2-0-2-4--4-0-0-2-|
E|-0---0----2-------|

Break, Travis (Chords, Fingerpicking at end)
e|---5---5--2-7-5-7--5---5---7---7---7---7---|
B|-9-5-9-5--2-5-5-5---5---5---5---5---5---5--|
G|-9-6-9-6--2-6-6-6----6---6---6---6---6---6-|
D|-9-7-9-7--4-7-7-7--------------------------|
A|-7---7-------------------------------------|
E|-------------------------------------------|

*Repeat Chorus*
*Claudio Repeat Break*

Break 2, Travis
Part 1
|----------------------------------|
|-0-9-10-0-7-9-0-5-7-0-4-5-0-5-7-0-|
|----------------------------------|
|----------------------------------|
|----------------------------------|
|----------------------------------|x4

Part 2
|--------------------------------------|
|-9-0-10-0-9-0-14-0-12-0-10-0-9-0-10-0-|
|--------------------------------------|
|--------------------------------------|
|--------------------------------------|
|--------------------------------------|x3

Part 3
(These are tremolo picked, he sometimes does a hammer on, pull off thing, i dont know that)
|------------------------------|
|-10---9-----------------------|
|----------11---9---8---9---11-|
|------------------------------|
|------------------------------|
|------------------------------|x3

*Repeat Part 2 x3*

Outro, Claudio, and Travis
e|-12-11------0~-|
B|-------12/--0~-|
G|------------1~-|
D|------------2~-|
A|------------2~-|
E|------------0~-|

So there it is, I know alot of people have been looking for this. I hope it sounds as 
to you as it does to me. Any

questions or comments please PM me, leave a comment here, or write on my profile. I 
it quite often and am always

looking to make corrections to my tabs. Thanks for playing!
Suggest correction
comments
print report bad tab
2 comments total.
+2 reply
The Paperclip 20 Mar 23, 2009 06:02 PM

I love it, thanks a lot for doing this. Great tab.

0 reply
ngapple936 10 Nov 11, 2010 04:34 PM

thanks, it's a great tab.

guest
You may want to rate the tab now too:
select rating
Wanna post a correction for this tab? Suggest correction