Oops, an error
Loading. Please wait.

A Favor House Atlantic Tab

version 1
version 1
20,185 views 6 this week
8 commentsread comments
1 2 3 4 5
x 13
add to favorites
launch autoscroll
font size
0
reset
how to read this tab
guitar tuner
Autoscroll
slow
fast
+/-
esc
set tempo
stop
Help us to improve Ultimate-Guitar.com Take our survey!
×
A Favor House Atlantic
======================
artist : Coheed and Cambria
tab by : Zack (lunawakka@yahoo.com)

This is my first....Coheed and Cambria tab. I think its accurate enough for you
to jam with your friends or whatever you want to do with it! I dont really care.
Sorry coz' i didn't completed the 2nd guitar part. For i'm too lazy to figure it
out especially the lead on the chorus part. Email me or sumthin'.....

Drop-D
======


[INTRO]

1st guitar                              2nd Guitar
==========                              ==========
| - - - - - - - - - 7 9 - - - -         | - -12 11- - 11- - - - - - - - -
| - - - - - - - - - - - 7 5 4 -         | - - - - -12 - -12/14- - - - - -
| - - - - - - - - - - - - - - -         | - - - - - - - - - - -13 11- 9~
| - 6 6 6 6 6 6 6 - - - - - - -         | - - - - - - - - - - - - - - - -
| - 4 4 4 4 4 4 0 - - - - - - -         | - - - - - - - - - - - - - - - -
| - - - - - - - - - - - - - - -         | - - - - - - - - - - - - - - - -
                          2nd guitar enter for verse


[VERSE]

| - - - - - - - - - - - - - - - - - - - - - - - - - - - -
| - - - - - - - - - - - - - - - - - - - - - - - - - - - -
| - - - - - - - - - - - - - - - - - - - - - - - - - - - -
| - 7 7 7 - - - - - - - - - - - - - - - - - - - - 7 7 7 -
| - 7 7 7 - - - - - - 4 4 4 - - - 6 6 6 - - - - - 7 7 7 -
| - 7 7 7 - - - - - - 2 2 2 - - - 4 4 4 - - - - - 7 7 7 -
"your eyes tells the stories of a day you wish you could 


[PRE-CHORUS]

| - - - - - - - - - - - - - - - - - - - - - - - - - - - - - - - - - - - - - -
| - - - - - - - - - - - - - - - - - - - - - - - - - - - - - - - - - - - - - -
| p.m.... - - - - - - - - - - - - - - - - - - - - - - - - - p.m.... - - - - -
| - 7 7 7 - - - - - - 9 - 7 - 6 - 4 - - - - - - - - - - - - - 7 7 7 - - - - -
| - 7 7 7 - - - - - - 7 - 7 - 4 - 2 - - - - - - - - - - - - - 7 7 7 - - - - -
| - 7 7 7 - - - - - - - - 7 - - - - - - - - - - - - - - - - - 7 7 7 - - - - -
Good eye, sniper.... The words you scribbled on the walls.... Are you in? 
                                          
1st Guitar                2nd Guitar
==========                ==========
| - - - - - - - - - -     | - -12 11- - 11- - - - - - - - -
| - - - - - - - - - -     | - - - - -12 - -12/14- - - - - -
| - - - - - - - - - -     | - - - - - - - - - - -13 11- 9~
| - 6 6 - 7 7 - 6 6 -     | - - - - - - - - - - - - - - - -
| - 4 4 - 7 7 - 4 4 -     | - - - - - - - - - - - - - - - -
| - - - - 7 7 - - - -     | - - - - - - - - - - - - - - - -
"Aaalllllll....   2nd guitar enter for verse

=see [VERSE]=

=see [PRE-CHORUS]=


[CHORUS]

| - - - - - - - - - - - - - - - - - - - - - - - - 
| - - - - - - - - - - - - - - - - - - - - - - - - 
| - - - - - - - - - - - - - - - - - - - - - - - - 
| - 2 2 2 - 7 7 7 - - 2 2 2 - - - - 7 7 7 - - - - 
| - 2 2 2 - 7 7 7 - - 2 2 2 - - - - 7 7 7 - - - - 
| - 2 2 2 - 7 7 7 - - 2 2 2 - - - - 7 7 7 - - - - 
 ...Bye bye beautiful Don't bother to write

| - - - - - - - - - - - - - - - - - - - - - - - - 
| - - - - - - - - - - - - - - - - - - - - - - - - 
| - - - - - - - - - - - - - - - - - - - - - - - - 
| - 4 4 4 - - - - - - - - - - - - - 7 7 7 - - - - 
| - 4 4 4 - - - - - - - - - - - - - 7 7 7 - - - - 
| - 4 4 4 - - - - - - - - - - - - - 7 7 7 - - - - 
Disturbed by your words and they're calling all cars 

| - - - - - - - - - - - - - - - - - - - - - - - - - - - - - - - 
| - - - - - - - - - - - - - - - - - - - - - - - - - - - - - - -
| - - - - - - - - - - - - - - - - - - - - - - - p.m.... - - - - 
| - 7 7 7 - - - - - - - - 9 - 7 - 6 - 4 - - - - - 7 7 7 - - - - 
| - 7 7 7 - - - - - - - - 7 - 7 - 4 - 2 - - - - - 7 7 7 - - - - 
| - 7 7 7 - - - - - - - - - - 7 - - - - - - - - - 7 7 7 - - - - 
...Face step, let down.   The  words you.....    are you in?


=Back To Chorus=

[OUTRO]

| -12 11- - - - - - - - - - - - - - - - - - - - - 
| - - - -12 - - - - - - - - - - - - - - - - - - - 
| - - - - - - - - - - - - - - - - - - - - - - - - 
| - - - - - 2~  - - - - - - - - - - - - - - - - - 
| - - - - - 2~  - - - - - - - - - - - - - - - - - 
| - - - - - 2~  - - - - - - - - - - - - - - - - - 

That's it! Later...Peace out !!
What? you think there's no Coheed and Cambria fans in Malaysia!?
Suggest correction
comments
print report bad tab
8 comments total. Showing first comments.
0 reply
brouhaha0818 10 Feb 21, 2004 12:00 AM

dude not even close

-1 reply
JRP112987 10 Mar 11, 2004 12:00 AM

this is garbage... coheed and cambria doesnt use drop d tuning... try again (actually dont)

0 reply
osiriscrazy 10 Apr 25, 2004 12:00 AM

God guys, give him a break, and at least TELL him what's wrong.

-Not Drop-D
-Intro:
|--------------------|
|--------------------|
|-666666---4h6-------|
|-666666-7-----4-----|
|-444444-7-------7p6-|
|--------5-----------|

guest
You may want to rate the tab now too:
select rating
Wanna post a correction for this tab? Suggest correction