Oops, an error
Loading. Please wait.

A Favor House Atlantic Tab

version 3
version 3
4,239 views 1 this week
3 commentsread comments
1 2 3 4 5
x 4
add to favorites
launch autoscroll
font size
0
reset
how to read this tab
guitar tuner
Autoscroll
slow
fast
+/-
esc
set tempo
stop
Help us to improve Ultimate-Guitar.com Take our survey!
×
Author
band:coheed and cambria
song:a favor house atlantic
tabbed:motop

ok.....basically most of the work was done by KELLEN
i just added some stuff to it or fixed little things..
..thanks KELLEN......gut. 2 im not positive on couse i had to tweak
my stereo to hear it.
         (normal tuning)


intro
gut.1 rep. 3 times
e|----------------------------------------------|
b|----------------------------------------------|
g|----------------------------------------------|
d|-66666666--6--------------4h6-----------------|
a|-44444444--0-----------------4----------------|
e|-------------------------------7\6------------|

intro 
gut. 2 comes in on 3rd time
e|12p11--11-------------------------------------|
b|-----12--12--14-------------------------------|
g|--------------------13----11p9----------------|
d|----------------------------------------------|
a|----------------------------------------------|
e|----------------------------------------------|
*****not sure if im off or not on that part******

then this thing happens (riff 1)
e|----------------------------------------------|
b|----------------------------------------------|
g|----------------------------------------------|
d|-2--------------4-----------6-----------------|
a|-0--------------2-----------4-----------------|
e|--*16 times-------*8times------*8times--------|


(before chorus)..(riff 2)
e|----------------------------------------------|
b|----------------------------------------------|
g|----------------------------------------------|
d|----------------------------------------------|
a|-7--------------------------------------------|
e|-5--*31times----------------------------------|


chorus
gut.1
e|---------------------------------------------|
b|---------------------------------------------|
g|---------------------------------------------|
d|---------------------------------------------|
a|-22---77---1111--99----------------7---------|
e|-00---55----9-9--77----------------5-*28times|

chorus
gut.2
e|----------------------------|
b|-99---1010--1212--99--------|
g|-99----9-9---9-9--77--------|
d|----------------------------|
a|----------------------------|
e|----------------------------|
*****guitars in unison*********

then this..rep. 3 times
e|---------------------------|
b|---------------------------|
g|---------------------------|
d|-666--666--444--222--------|
a|-444--000--222--000--------|
e|---------------------------|


then this......
gut. 1 plays riff. 1
while gut. 2 plays this
*might not be correct*
e|----------------9-----------------------------------------9-|
b|---10p9--12p9----9--12---10---7--7-------------10p9--11p9--9|
g|--9-----------9----9---9-----8--8-----9---11^^^----9-------9|
d|------------------------------------------------------------|
a|------------------------------------------------------------|
e|------------------------------------------------------------|
*******not sure, i think he repeats that***********************

then this....
gut.1 plays riff 2


then the chorus

guess this is the bridge
rep.twice
e|-------------------------------------|
b|-------------------------------------|
g|-------------------------------------|
d|-------------------------------------|
a|-7------------------2----------------|
e|-5-*16times---------0-*16times-------|

e|---------------------------------------------------|
b|---------------------------------------------------|
g|---------------------------------------------------|
d|---------------------------------------------------|
a|-7-----------------4-------------7-----------------|
e|-5-*16times--------2-*16times----5-*for-a-long-time|

then chorus comes in...

then the bridge happens again,,,turns into this
*this part was incredinly hard to tab*
also is hard to hear in song...repeats alot
e|------------------------------------|
b|-0-9-11-0-11-0-13-0----7-0-3-5-5-6-0|
g|------------------------------------|
d|------------------------------------|
a|------------------------------------|
e|------------------------------------|

then this weird thing
basically wat u do is just very quick up and down
strokes and slide into everything...........
rep. acouple times
e|------------------------------------|
b|-9--4--5--8--11--9--8--5--4--5--6---|
g|------------------------------------|
d|------------------------------------|
a|------------------------------------|
e|------------------------------------|

thats it...........u might have to figure out some 
of the order to the song ureself.........this is prob.
around my 20th tab but 1st on this site....fender20x@aol.com
Suggest correction
comments
print report bad tab
3 comments total.
0 reply
bongy111 10 Jul 24, 2004 12:00 AM

e|----------------------------------------------|
b|----------------------------------------------|
g|-------------------------------4h6----------|
d|-66666666--6------------------4~-------|
a|-44444444--0--------------------7-6----|
e|-----------------------------------------------|

ah yes thats more like it

0 reply
bongy111 10 Jul 24, 2004 12:00 AM

um... nevermind it didnt turn out right..haha

0 reply
182degrees 10 Sep 11, 2004 12:00 AM

yeh i think its better tht way too

guest
You may want to rate the tab now too:
select rating
Wanna post a correction for this tab? Suggest correction