Oops, an error
Loading. Please wait.

A Favor House Atlantic Tab

version 4
version 4
183,336 views 93 this week
45 commentsread comments
1 2 3 4 5
x 78
add to favorites
launch autoscroll
font size
0
reset
how to read this tab
guitar tuner
Autoscroll
slow
fast
+/-
esc
set tempo
stop
Help us to improve Ultimate-Guitar.com Take our survey!
×
Author
[Intro]

e|--------------------------|
B|--------------------------|
G|---------------4-6--------|
D|-6-6-6-6-6-6-6-----4------|
A|-4-4-4-4-4-4-0--------7-6-|
E|--------------------------|

fill lead
e|-12-11----11----------------------------|
B|-------12----12--14---------------------|
G|---------------------13--11-9---11---13-|
D|----------------------------------------|
A|----------------------------------------|
E|----------------------------------------|


[Verse]

(chords)
e|----------|
B|----------|
G|----------|
D|-2---4--6-|
A|-0---2--4-|
E|----------|

lead
e|---------------9-------------------7----------|
B|-10-9---12-9-----9---12-9---10\------7----9---|
G|------9------9-----9------9-----/8-----/9---9-|
D|----------------------------------------------|
A|----------------------------------------------|
E|----------------------------------------------|


[Pre-Chorus]

e|-----------------------------------------------------------------|
B|-----------------------------------------------------------------|
G|-----------------------------------------------------------------|
D|-----------------------------------------------------------------|
A|-7-7-7-7-7-7-7-7-7-7-7-7-7-7-7-7-7-7-7-7-7-7-7-7-7-7-7-7-7-7-7-7-|
E|-5-5-5-5-5-5-5-5-5-5-5-5-5-5-5-5-5-5-5-5-5-5-5-5-5-5-5-5-5-5-5-5-|
   . . . . . . . . . . . . .       . . . . . . . . . . . . . . . .


[Chorus]

e|----------------------|--|-----------------------------------------------------------------|
B|----------------------|--|-----------------------------------------------------------------|
G|----------------------|--|-----------------------------------------------------------------|
D|----------------------|X3|-----------------------------------------------------------------|
A|-2-2--7-7--11-11--9-9-|--|-7-7-7-7-7-7-7-7-7-7-7-7-7-7-7-7-7-7-7-7-7-7-7-7-7-7-7-7-7-7-7-7-|
E|-0-0--5-5--9--9---7-7-|--|-5-5-5-5-5-5-5-5-5-5-5-5-5-5-5-5-5-5-5-5-5-5-5-5-5-5-5-5-5-5-5-5-|
                             . . . . . . . . . . . . . . . . . . . . . . . . . . . . . . . .
lead
e|------------------------|--|-4---------|
B|-9-9--10-10--12-12--7-7-|--|-5---5---5-|
G|-9-9--9--9---9--9---9-9-|--|-----6-----|
D|------------------------|X3|-----------|
A|------------------------|--|-----------|
E|------------------------|--|-----------|


[Fill]

e|----------------------------|
B|----------------------------|
G|----------------------------|
D|-6-6-6--6-6-6--4-4-4--2-2-2-|
A|-4-4-4--0-0-0--0-0-0--0-0-0-|
E|----------------------------|


[Bridge]

(chords)
e|-------------------------|
B|-------------------------|
G|-------------------------|
D|-------------------------|
A|-2---7--7-2---7--9-4---7-|
E|-0---5--4-0---5--7-2---5-|

lead 1
e|---------------------------------------------------------------------------|
B|-5---5---5---5---7-7-7-7-7-7-7-7-7-7-7-7-7-7-7-7-5-5-5-5-5-5-5---5---5---5-|
G|-4---6---4---6---6-6-6-6-6-6-6-6-6-6-6-6-6-6-6-6-6-6-6-6-6-6-6---4---6---6-|
D|---------------------------------------------------------------------------|
A|---------------------------------------------------------------------------|
E|---------------------------------------------------------------------------|

lead 2
e|----------------------------------|--|---------------------------------------|
B|-0-9-10-0-7-9-0-5-7-0-4-5-0-5-7-0-|--|-9-0-10-0-12-0-14-0-12-0-10-0-9-0-10-0-|
G|----------------------------------|--|---------------------------------------|
D|----------------------------------|X4|---------------------------------------|X2
A|----------------------------------|--|---------------------------------------|
E|----------------------------------|--|---------------------------------------|

e|-----------------------------------------------------------------|
B|-9-9-5-0-7-9-0-5-7-0-4-5-0-5-7-0-9-9-5-0-7-9-5---7-0-4-5-0-0-5-7-|
G|-----------------------------------------------6-----------------|
D|-----------------------------------------------------------------|
A|-----------------------------------------------------------------|
E|-----------------------------------------------------------------|


lead 3 

(Each note in the first half of this lead is struck w/ tremolo picking)
e|------------------------------------------------------------------------|
B|-10--9--7--9-4-5-7-10--9--7--5-4-5-7-10--9--7--9-4-5-7-5--4--5--7-5-4-5-|
G|------------------------------------------------------------------------|
D|------------------------------------------------------------------------|
A|------------------------------------------------------------------------|
E|------------------------------------------------------------------------|

e|---------------------------------------|--|---------------------------------|
B|-9-0-10-0-12-0-14-0-12-0-10-0-9-0-10-0-|--|-9-0-7-9-0-0-7-9-0-5-7-0-4-0-5-0-|
G|---------------------------------------|--|---------------------------------|
D|---------------------------------------|X2|---------------------------------|
A|---------------------------------------|--|---------------------------------|
E|---------------------------------------|--|---------------------------------|


[Outro]

e|-12-11------|
B|-------12---|
G|------------|
D|------------|
A|----------2-|
E|----------0-|



LYRICS AND RIFF PLACEMENT

[INTRO] X2
[INTRO W/ LEAD]
[VERSE] X2
Your eyes tell the stories of a day you wish you could
Recall the moments that once have
[VERSE W/ LEAD] X2
Retract the footsteps that brought us to this favor
I wouldn't ask this of you
[PRECHORUS]
Good eye sniper
I'll shoot you run
[CHORUS W/ LEAD]
The words you scribbled on the walls
The loss of friends, you didn't have
I'll call you when the time is right
Are you in or are you out
For them all to know the end of us all
[FILL] X2
[FILL W/ LEAD]
[Verse]
Run quick they're behind us
Didn't think we'd ever make it
[VERSE W/ LEAD] X3
This close to safety in one piece
Now you want to kill me
In the act of what could maybe
Save us from sleep and what we are
[PRECHORUS]
Good eye sniper
I'll shoot you run
[CHORUS W/ LEAD]
The words you scribbled on the walls
The loss of friends, you didn't have
I'll call you when the time is right
Are you in or are you out
For them all to know the end of us all
[BRIDGE W/ LEAD 1]
Bye, bye beautiful
Don't bother to write
Disturbed by your words and they're calling all cars
Face step let down, face step... Step down
[CHORUS W/ LEAD]
The words you scribbled on the walls
The loss of friends, you didn't have
I'll call you when the time is right
Are you in or are you out
For them all to know
[BRIDGE W/ LEAD 2]
Bye, bye beautiful
Don't bother to write
Disturbed by your words and they're calling all cars
Face step let down, face step... Step down
[BRIDGE W/ LEAD 3]
Bye, bye beautiful
Don't bother to write
Disturbed by your words and they're calling all cars
Face step let down, face step... Step down
[Outro]


***********************

| /  slide up
| \  slide down
| h  hammer-on
| p  pull-off
| ~  vibrato
| +  harmonic
| x  Mute note

***********************
Suggest correction
comments
print report bad tab
45 comments total. Showing first comments.
+2 reply
pmeg568c 450 Jul 27, 2004 12:00 AM

perfect even checked with guitar world :)

+1 reply
PAsistem 195 Aug 03, 2004 12:00 AM

i love it

+3 reply
PAsistem 195 Aug 03, 2004 12:00 AM

anybody who says it's wrong can die

guest
You may want to rate the tab now too:
select rating
Wanna post a correction for this tab? Suggest correction