Oops, an error
Loading. Please wait.

Apollo I The Writing Writer Tab

version 2
version 2

Whole song

Interactive

4,132 views 1 this week
1 commentread comment
1 2 3 4 5
accurate
x 3
add to favorites
launch autoscroll
font size
0
reset
how to read this tab
guitar tuner
Tab Pro tools
  • play this tab
  • loop segment
  • change instrument
  • show fretboard
  • metronome
×
Best way to learn
"Apollo I The Writing Writer"
Autoscroll
slow
fast
+/-
esc
set tempo
stop
Contributor
-------------------------------------------------------------------------------
        Apollo I: The Writing Writer - Coheed and Cambria
-------------------------------------------------------------------------------

Tabbed by: joecool71
Email: mattconnellan@yahoo.com

Tuning: 1/2 step down

Whee! It's Coheed! 

Verse
e|------------------------------------------------------------->
B|------------------------------------------------------------->
G|----6---6---6---6---6---6---6----6---6---6---6---6----------->
D|-4----4---4---4---4---4---4---4----4---4---4---4------------->
A|----------------------------------------------------2--4h5-2->
E|------------------------------------------------------------->
      . . . . . . . . . . . . .    . . . . . . . . .
Verse cont'd
e|----------------------------------------------------------|
B|----------------------------------------------------------|
G|----------------------------------------------------------|
D|---4---5-4--------4---5-4--------4---5-4--------4---5-4---|
A|-2---2-----2-2--2---2-----2-2--2---2-----2-2--2---2-----2-|
E|----------------------------------------------------------|
   . . . . . . .  . . . . . . .  . . . . . . .  . . . . . .
Verse lead
e|----------------------------------------------------|
B|----------------------------------------------------|
G|---6-7----6--------7-6-------7-9-------------7-6----|
D|-7------7------7-------X2---------7-9----7-------X2-|
A|------------7----9---------9----------7----9--------|
E|----------------------------------------------------|

Prechorus
e|----------------------------------------------------------------|
B|--------------------0-3-2---------------------------------------|
G|------------------2-------0-2-4---------------------------------|
D|----0-5-4-2----2-----------------0-4-0-5-0-4-0-2-0-----2-4-2-X2-|
A|------------4--------------------------------------4-0----------|
E|-3--------------------------------------------------------------|

Chorus & alternate chorus
e|---------------------------------|-------------------------------------|
B|---------------------------------|-------------------------------------|
G|---------------------------------|-------------------------------------|
D|-----------------4-44444-7-6-7---|-----------------------------7-6-7---|
A|-5-55555-2-22222-2-22222-5-4-5-7-|-5-55555-2-22---02-2-5p2-5p2-5-4-5-7-|
E|-3-33333-0-00000---------------5-|-3-33333-0-00023-------------------5-|
     ....    ....    ....              ....    ..
Chorus lead                                          1st ending       2nd ending
e|--------------------------------------------------|-------------|------------->
B|-12-14-15-14-12-----------------------------------|-------------|------------->
G|----------------14-12--11-12-11--9-11-9--7-9-7----|-6-7-9-7-6-7-|-6-7-9-7-6-4->
D|-----------------------------------------------X2-|-------------|------------->
A|--------------------------------------------------|-------------|------------->
E|--------------------------------------------------|-------------|------------->

Chorus lead cont'd
e|--------------------------------------------------14-12----12-14p12---->
B|-12-14-15-14-12----/12-/14--12-14-15-14-12----/12-------14----------14->
G|----------------14-------------------------14-------------------------->
D|----------------------------------------------------------------------->
A|----------------------------------------------------------------------->
E|----------------------------------------------------------------------->

Chorus lead alternate endings
e|----------------|------------|
B|-15-14-15-------|-14---------|
G|----------14-12-|----14///16-|
D|----------------|------------|
A|----------------|------------|
E|----------------|------------|

Bridge
e|------------------------------------------------------------------------------------------|
B|------------------------------------------------------------------------------------------|
G|------------------------------------------------------------------------------------------|
D|-----------------------4--4-4-4-4--4-4-4--4-4--------------------4--4-4-4-4--4-4-4--4-4-2-|
A|-5-555555-555555-555-7-2--0-2-2-0--2-2-0--2-0-5--4-5--4-5--4-5-7-2--0-2-2-0--2-2-0--2-0-0-|
E|-3-333333-333333-333-5------------------------3--2-3--2-3--2-3-5--------------------------|
     ...... ...... ..                              . .  . .  . . .

Bridge lead                                                      2nd ending
e|-14b-12-------------------------10----------------------------|----------|
B|--------15-12-12-10-12-12-10-12-------------------------------|----------|
G|-----------------------------------11b-9-7---------------7----|-7--6h7p6-|
D|-------------------------------------------9-9-7-9-9-7-9---X2-|----------|
A|--------------------------------------------------------------|----------|
E|--------------------------------------------------------------|----------|

RIFF PLACEMENT

[CHORUS W/ LEAD X3]
[PRECHORUS]
[VERSE W/ LEAD X2]
[CHORUS W/ LEAD]
[VERSE W/ LEAD X2]
[PRECHORUS]
[BRIDGE W/ LEAD]
[CHORUS X2]

| /  slide up
| \  slide down
| h  hammer-on
| p  pull-off
| ~  vibrato
| +  harmonic
| x  Mute note
| .  Palm mute
===============================================================================
comments
We did not receive enough feedback on this tab! Please rate:
print report bad tab
1 2 3 4 5
1 comment total.
0 reply
Elegitii wrote on May 18 2015, 04:55 pm

Lack of accuracy. Clearly wrong. Verse part blatantly wrong. No timing. Even the tuning on each stave is wrong. How can someone write a full tab and not realize it's this wrong at some point.

I want to post or [tab]
guest
You may want to rate the tab now too:
select rating
Please do not post tabs as comments. Select "correction" instead!