Oops, an error
Loading. Please wait.

Blood Red Summer Bass Tab

version 2
version 2

Whole song

Interactive

2,472 views 1 this week
no commentswrite comment
1 2 3 4 5
1 last vote to show rating
add to favorites
launch autoscroll
font size
0
reset
guitar tuner
Autoscroll
slow
fast
+/-
esc
set tempo
stop
Help us to improve Ultimate-Guitar.com Take our survey!
×
Author
-----------------------------------------------------------------------------
BLOOD RED SUMMER - Eraserheads
-----------------------------------------------------------------------------

Tabbed By: Carl Gabriel C. Culvera
e-mail: wizard_effect@yahoo.com

Tuning: Standard

Verse: “Faint white figures paint my sleep…”

G|-------------------------------------------------------------------------|
D|--------------------------------------7-6--------------------------------|
A|-----------------7------------------------6/7------7-----8\7-5-7-------7-|
E|-7h9-10-12-7—7h9---9-7—7h9-10-12-7--7----------7h9---9-7---------9—7h9---|

G|---------------| Repeat   G|------------|
D|---------------| this tab D|-6-7~--7-6~-|
A|-----8\7-5-7---| thrice   A|------------|
E|-9-7---------9-| then…    E|------------|

Chorus: “And when the answer that you want is in the question that you state, come what may…”

G|--------------------------------------------------------------------------|
D|---6-7-6-------6----------------------------------------------------------|
A|---------7-9-7---7--2-2-4-4-6-6-7-7-9-9-11-11-12-12-14-14--------14-------|
E|-7---------------------------------------------------------12-12----12-12-|

G|-------------------------------------------------------| Repeat this tab
D|-------------------------------------------------------| twice then…
A|-14-------14-------14-------14-------14-------14-0-0-0-| Repeat Verse
E|----12-12----12-12----12-12----12-12----12-12----------| the last tab then…

Repeat Chorus then…

Bridge: “What did I do to deserve?”

G|-----------------------------------------------------------------| Repeat
D|-----------------------------------------------------------------| this tab
A|-----------------------------------------------------------------| twice
E|-9-9-9-9-9-9-9-9-7-7-7-7-7-7-7-7-5-5-5-5-5-5-5-5-5-5-5-5-5-5-5-5-| then…

Repeat Verse twice only with last then…
Repeat the tab of Bridge thrice
Suggest correction
Give kudos to tab author, rate the tab!
1 2 3 4 5
comments
print report bad tab
guest
You may want to rate the tab now too:
select rating
Wanna post a correction for this tab? Suggest correction