Oops, an error
Loading. Please wait.

Blood Red Summer Tab

version 2
version 2

Whole song

Interactive

62,666 views 18 this week
13 commentsread comments
1 2 3 4 5
excellent!
x 28
add to favorites
launch autoscroll
font size
0
reset
how to read this tab
guitar tuner
Tab Pro tools
  • play this tab
  • loop segment
  • change instrument
  • show fretboard
  • metronome
×
Best way to learn
"Blood Red Summer"
Autoscroll
slow
fast
+/-
esc
set tempo
stop
  BLOOD RED SUMMER - Coheed and Cambria
-----------------------------------------------------------------------------
Tabbed by: Gorgeous George
Email: doughertyandrew@hotmail.com

Tuning: Standard

INTRO/VERSE (Guitar 1)
e|----------------------------------------------------------------------------|
B|----------------------------------------------------------------------------|
G|----------------------------------------------------------------------------|
D|--9---9-9-9-9-9-----9-9---9-9-9-9-9-9---7---7-7-7-7-7-7---6/7---7-7-7-7-7-7-|
A|--7-pm7-7-7-7-7-----6/7-pm7-7-7-7-7-7---7---7-7-7-7-7-7---7-7---7-7-7-7-7-7-|
E|----------------------------------------5-pm5-5-5-5-5-5---4/5-pm5-5-5-5-5-5-|
    "Faint white figures paint my sleep..."

VERSE (Guitar 2)
e|---------------------------------------------------------------------------|
B|---------------------------------------------------------------------------|
G|---------------------------------------------------------------------------|
D|-----2--------2--------2---------------------------------------------------|
A|-2h4--2-2-2-4--2-2-2-4--2-4-0----------------------------------------------|
E|------------------------------4-2-0--0-0h2-4-5-4-2-4p0--0-0h2-4-5-4-2-4p0--|

END of VERSE
e|---------------------------------------------------------------------------|
B|---------------------------------------------------------------------------|
G|-----------------------9-9--8-8--7-7--6------------------------------------|
D|------2--------------------------------------------------------------------|
A|--2h4------------------7-7--6-6--5-5--4------------------------------------|
E|----------4-5---7-4--------------------------------------------------------|

CHORUS (Guitar 1)
e|---------------------------------------------------------------------------|
B|---------------------------------------------------------------------------|
G|--4-4-4-4-4-4--2-2-2-2-2-2----9-9-9-9-9-9-9-9-9-9-9-9-9-9-9-9-9-9-9--------|
D|--4-4-4-4-4-4--2-2-2-2-2-2----9-9-9-9-9-9-9-9-9-9-9-9-9-9-9-9-9-9-9--------|
A|--2-2-2-2-2-2--0-0-0-0-0-0----7-7-7-7-7-7-7-7-7-7-7-7-7-7-7-7-7-7-7--------|
E|-----------------------------(0-0-0-0-0-0-0-0-0-0-0-0-0-0-0-0-0-0-0)-------|
    "And when the answers that you want..."

CHORUS (Guitar 2)
e|-------------------|--------------------------------------------------------|
B|-------------------|--------------------------------------------------------|
G|--2p1---------1----|-----------------------------------9-9-----9-9----9-9---|
D|------4p2-2h4---2--|-----------------4-4--6-6--7-7--9-9-----9-9---9-9-----9-|
A|-------------------|---4-4--6-6--7-7----------------------------------------|
E|-------------------|--------------------------------------------------------|
  (I'm not sure if
   this part is right,
   but it works.)

BRIDGE (Guitar 1)
e|----------------------------------------------------------------------------|
B|----------------------------------------------------------------------------|
G|--6-6-6-6-6-6-6-6---4-4-4-4-4-4-4-4---2-2-2-2-2-2-2-2-2-2-2-2-2-2-2---------|
D|--6-6-6-6-6-6-6-6---4-4-4-4-4-4-4-4---2-2-2-2-2-2-2-2-2-2-2-2-2-2-2---------|
A|--4-4-4-4-4-4-4-4---2-2-2-2-2-2-2-2---0-0-0-0-0-0-0-0-0-0-0-0-0-0-0---------|
E|----------------------------------------------------------------------------|
    "What did I do to deserve..."

Bridge (Guitar 2)
e|---------------------------------------------------------------------------|
B|------------9h10--9----------------------9h10--9---------------------------|
G|-------9h11---------11--9-----------9h11---------11--9-----9-9--8-8--9-9---|
D|--9h11---------------------11--9h11--------------------11------------------|
A|---------------------------------------------------------------------------|
E|---------------------------------------------------------------------------|

e|---------------------------------------------------------------------------|
B|---------------------------------------------------------------------------|
G|--11-11--9-9--8-8-----9-9--8-8--9-9--11-11--9-9-----9----------------------|
D|------------------9-----------------------------9-9------------------------|
A|---------------------------------------------------------------------------|
E|---------------------------------------------------------------------------|

At the end of the song, Guitar 2 plays this instead:
e|---------------------------------------------------------------------------|
B|------------9h10--10p9--------------------9h10--10p9-----------------------|
G|-------9h11------------11p9----------9h11------------11p9------------------|
D|--9h11----------------------11--9h11----------------------11---------------|
A|---------------------------------------------------------------------------|
E|---------------------------------------------------------------------------|

INTRO/VERSE
CHORUS
VERSE
CHORUS
BRIDGE
VERSE
BRIDGE

| /  slide up
| \  slide down
| h  hammer-on
| p  pull-off
| ~  vibrato
| +  harmonic
| x  Mute note
==============================================
comments
print report bad tab
13 comments total. Showing first comments.
0 reply
WhiteStripes427 wrote on February 3 2005, 12:00 am

i wanna bang your grandma

0 reply
plugy wrote on October 14 2005, 07:59 pm

me 2!

0 reply
ZeioMan wrote on October 26 2005, 02:41 pm

Sorry dude, but thirded.

I want to post or [tab]
guest
You may want to rate the tab now too:
select rating
Please do not post tabs as comments. Select "correction" instead!