Oops, an error
Loading. Please wait.

Blood Red Summer Tab

version 3
version 3

Whole song

Interactive

2,403 views 1 this week
1 commentread comment
1 2 3 4 5
please rate
add to favorites
launch autoscroll
font size
0
reset
how to read this tab
guitar tuner
Autoscroll
slow
fast
+/-
esc
set tempo
stop
Help us to improve Ultimate-Guitar.com Take our survey!
×
Author
haha45 33
Tabbed by: Haha45
Email: Idontgiveaflyingsh*t88@yahoo.com

The first tabbing of this was wrong in the verse/chorus lead. i apologize for taht.
i do. it sound vad the way i did it. Im pretty sure this is good, almost ligit way to play
song. seriously. The verse rhythem and Chorus Rhythem i got from the Ver. 1 tab. i added 
the rest and to make it was easy to understand and play. a fun song.

*(And any comments on the bad tab is fine to)

Email me if any question on any other Coheed song or this one.

Lead Is Travis, Rhythem Is Claudio

(and thanks to "thedude97" for the correction on the bridge chords.)

Tuning: Standard

Intro
e|-----------------------------------|
B|-----------------------------------|
G|-----------------------------------|
D|-999999999999999-8999999999999999--|
A|-777777777777777-6777777777777777--|
E|-----------------------------------|
    .....P.M......   .....P.M......

Cuts too-
e|-----------------------------------|
B|-----------------------------------|
G|-----------------------------------|
D|-----------------------------------|
A|-777777777777777-67777777777777777-|
E|-555555555555555-45555555555555555-|
    .....P.M......   .....P.M.......

   "Faint White.." "Please don't tell my secrets"

Verse
e|--------------------------------------------------------------------|
B|--------------------------------------------------------------------|
G|--------------------------------------------------------------------|
D|-999999999999999-8999999999999999-----------------------------------|
A|-777777777777777-6777777777777777-777777777777777-67777777777777777-|
E|----------------------------------555555555555555-45555555555555555-|
    .....P.M......   .....P.M......  .....P.M......   .....P.M.......
"Keeps them Hidden" "You got it.." "If the words.." "will you wondering if.."

Verse
e|--------------------------------------------------------------------|
B|--------------------------------------------------------------------|
G|--------------------------------------------------------------------|
D|-999999999999999-8999999999999999-----------------------------------|
A|-777777777777777-6777777777777777-777777777777777-67777777777777777-|
E|----------------------------------555555555555555-45555555555555555-|
   "or..."         "Do i need..."   "does it cost." "Even number you neph-"

Verse
e|--------------------------------------------------------------------|
B|--------------------------------------------------------------------|
G|--------------------------------------------------------------------|
D|-999999999999999-8999999999999999-----------------------------------|
A|-777777777777777-6777777777777777-777777777777777-67777777777777777-|
E|----------------------------------555555555555555-45555555555555555-|
 "-ew..."         "I dont want it..""Anymore.......""..............."


Verse lead (Part One) (Starts with first E:5/A:7 (5/7) )
e|-------------------------------------------------------------------------------|
B|-------------------------------------------------------------------------------|
G|-------------------------------------------------------------------------------|
D|-------------------------------------------------------------------------------|
A|-------7-------7---------7-----------------------------------------------------|
E|-7-9-9---7-7-9---7-7-9-9---9-9p7--5-4--2p0--2-4--5-4--2-4-0--2-4--5-4--2--4-0--|
(Repeat this Twice. first time should end on the last "it" in "you got it, you got it,
got it", Second time should end on the end of "honest"  in "do I need what is given or honest".


Verse Lead (Part Two)

Repeat the Lead Part 1 once then add the Fill In below right after the "-4-0-"

e|-----------------------------------------|
B|-----------------------------------------|
G|-----------------------------------------|
D|-----------------------------------------|
A|--------------------7-7-6-6-5-5-4--------|
E|--7-9----4-5----7-5----------------4-----|

e|------------------|
B|------------------|
G|------------------|
D|-9-9--8-8--7-7--6-|
A|-9-9--8-8--7-7--6-|
E|-7-7--6-6--5-5--4-|
      <-DISTORTED->

Chorus
e|---------------------------------------------------------------------|
B|---------------------------------------------------------------------|
G|-----------------------------------699999999999999-69999999999999999-|
D|-9999999999999999-7777777777777777-699999999999999-69999999999999999-|
A|-9999999999999999-7777777777777777-877777777777777-87777777777777777-|
E|-7777777777777777-5555555555555555-----------------------------------|
  "And when the..." "Is in the..."    "come what may" "come what may"
(Repeat twice)

Chorus lead
e|----------------|----------------|-----------------------------------|
B|----------------|----------------|-----------------------------------|
G|--------2p1---1-|-----1----------|-----------------------------------|
D|-----4------4---|-2h4---2--2-4p2-|-----------------------------------|
A|--2-------------|----------------|-0-0-4-4-6-6-7-7--9--11--12--14\---|
E|----------------|----------------|-----------------------------------|

e|-------------------------------------------------------|
B|-------------------------------------------------------|
G|---9-9-----9-9----9-9-9-9--|---9-9-----9-9----9-9-9-9--|
D|-------9-9-----9-9---9-----|-------9-9-----9-9---9-----|
A|-------------------------------------------------------|
E|-------------------------------------------------------|
************************************************************************
Verse 2

Verse
e|--------------------------------------------------------------------|
B|--------------------------------------------------------------------|
G|--------------------------------------------------------------------|
D|-999999999999999-8999999999999999-----------------------------------|
A|-777777777777777-6777777777777777-777777777777777-67777777777777777-|
E|----------------------------------555555555555555-45555555555555555-|
   "In a pain..."  "Could u stop.." "Plead........" "You got, it..."

Verse
e|--------------------------------------------------------------------|
B|--------------------------------------------------------------------|
G|--------------------------------------------------------------------|
D|-999999999999999-8999999999999999-----------------------------------|
A|-777777777777777-6777777777777777-777777777777777-67777777777777777-|
E|----------------------------------555555555555555-45555555555555555-|
  "So am destined" "A child in..."  "From........." "will they know..."

Verse
e|--------------------------------------------------------------------|
B|--------------------------------------------------------------------|
G|--------------------------------------------------------------------|
D|-999999999999999-8999999999999999-----------------------------------|
A|-777777777777777-6777777777777777-777777777777777-67777777777777777-|
E|----------------------------------555555555555555-45555555555555555-|
  "In the Sought." "In a Blood...." "you.........." "Don't want it..."

e|------------------|
B|------------------|
G|------------------|
D|-9-9--8-8--7-7--6-|
A|-9-9--8-8--7-7--6-|
E|-7-7--6-6--5-5--4-|
      <-DISTORTED->

Bridge
(Hammer-ons)
What did I do to deserve
(Hammer-ons)                (Doubles)
What did I do to deserve (This This)
(Hammer-ons)
What did I do to deserve
(Hammer-ons)                (Doubles)
What did I do to deserve (This This)

Bridge
   What did I do to...    What did I do... This, This...
e|----------------------------------------------------------|
B|----------------------------------------------------------|
G|----------------------------------------------------------|
D|-11-11-11-11-11-11-11-11-9-9-9-9-9-9-9-9-7-7-7-7-7-7-7-7--|
A|-11-11-11-11-11-11-11-11-9-9-9-9-9-9-9-9-7-7-7-7-7-7-7-7--|
E|--9--9--9--9--9--9--9--9-7-7-7-7-7-7-7-7-5-5-5-5-5-5-5-5--|
"I think the strumming pattern for this is DUD-DDDDD for each part. or something like
Idk"

Bridge      (Hammer-ons)
What did I do to deserve/What did I do to deserve          (This...     )
e|---------------------------------------------------------------------------|
B|------------9h10--9----------------------9h10--9---------------------------|
G|-------9h11---------11--9-----------9h11---------11--9-----9-9--8-8--9-9---|
D|--9h11---------------------11--9h11----------------------11----------------|
A|---------------------------------------------------------------------------|
E|---------------------------------------------------------------------------|
 (This...) (Not sure on the timings for the "This parts")
e|---------------------------------------------------------------------------|
B|---------------------------------------------------------------------------|
G|--11-11--9-9--8-8-----9-9--8-8--9-9--11-11--9-9-----9----------------------|
D|------------------9-----------------------------9-9------------------------|
A|---------------------------------------------------------------------------|
E|---------------------------------------------------------------------------|

The Lead for the "Whoa oh" part is the same as the lead for the verse

PM Whoa oh, whoa oh whoa oh
e|-----------------|
B|-----------------|
G|-----------------|
D|-999999999999999-|
A|-777777777777777-|
E|-----------------|
    ..............

PM Whoa oh, oh oh whoa oh whoa oh
e|------------------|
B|------------------|
G|------------------|
D|-8999999999999999-|
A|-6777777777777777-|
E|------------------|
     ..............

PM Whoa oh, whoa oh whoa oh
e|-----------------|
B|-----------------|
G|-----------------|
D|-----------------|
A|-777777777777777-|
E|-555555555555555-|
    ..............

PM Whoa oh, oh oh whoa oh whoa oh
e|-------------------|
B|-------------------|
G|-------------------|
D|-------------------|
A|-67777777777777777-|
E|-45555555555555555-|
     ...............
(x2)

PM
e|-----------------|
B|-----------------|
G|-----------------|
D|-999999999999999-|
A|-777777777777777-|
E|-----------------|
    .............
PM
e|------------------|
B|------------------|
G|------------------|
D|-8999999999999999-|
A|-6777777777777777-|
E|------------------|
     ..............

(The lead at the whoa oh part is the same as the first part of the verse lead)

e|------------------|
B|------------------|
G|------------------|
D|-9-9--8-8--7-7--6-|
A|-9-9--8-8--7-7--6-|
E|-7-7--6-6--5-5--4-|
      <-DISTORTED->

(Hammer-ons)
What did I do to deserve
(Hammer-ons)                (Doubles)
What did I do to deserve (This This)
(Hammer-ons)
What did I do to deserve
(Hammer-ons)                (Doubles)
What did I do to deserve (This This)
(Doubles)
Hey hey hey


(Hammer-ons)
What did I do to deserve
(Hammer-ons)                (Doubles)
What did I do to deserve (This This)
(Doubles)
Hey hey hey

(Hammer-ons)
What did I do to deserve
(Hammer-ons)
What did I do?
Suggest correction new What's this?
You can suggest a correction to this tab. Community and Mods will review your correction and vote to approve or reject it.
comments
We did not receive enough feedback on this tab! Please rate:
print report bad tab
1 2 3 4 5
1 comment total.
0 reply
thedude97 745 wrote on August 9 2008, 03:35 pm

You forgot the bridge chords, which are C#m, B, A

guest
You may want to rate the tab now too:
select rating
Please do not post tabs as comments. Select "correction" instead!