Oops, an error
Loading. Please wait.

Chamberlain Tab

version 1
version 1

Whole song

Interactive

1,806 views 1 this week
no commentswrite comment
1 2 3 4 5
please rate
add to favorites
launch autoscroll
font size
0
reset
how to read this tab
guitar tuner
Autoscroll
slow
fast
+/-
esc
set tempo
stop
Help us to improve Ultimate-Guitar.com Take our survey!
×
Author
Difficulty
Tuning
intermediate
D# G# C# F# A# D#
Artist: Coheed and Cambria
Track: "Chamberlain"
Album: Year of the Black Rainbow
Tuning: E Flat Tuning

Tabbed by Larry Jones

Another demo track off of the new record.  I feel like there is only one guitar on this 
sometimes I feel
like I hear a trace of another guitar though.  I believe this to be accurate. Have fun.

Key:
/ - slide
. - palm mute
v - vibrato
p - pull off
h - hammer on
~ - let ring
b - bend to sound like the following note
r - release bend
* - natural harmonic

Drum Intro: (0:00 - 0:17)

First Verse: (0:17 - 0:46)

"Worlds are burning now..."

Play the following riff 8 times
eb-----------------------------------------------------------------|
Bb-----------------------------------------------------------------|
Gb-----------------------------------------------------------------|
Db-----------------------------------------------------------------|
Ab---------7-------8-------3---5-----------------------------------|
Eb-00000000--000000--000000--00-00---------------------------------|
   ........  ......  ......  .. ..

First Pre-Chorus: (0:46 - 1:00)

"So you can take to the grave..."

Play the following riff 2 times
eb-----------------------------------------------------------------|
Bb-----------------------------------------------------------------|
Gb-----------------------------------------------------------------|
Db-----------------------------------------------------------------|
Ab-8~---------------------8~---------------------------------------|
Eb-6~----5-3-0-2v---3-5---6~----5-3-0-2v---3-3---------------------|


First Chorus: (1:00 - 1:28)

"The end is now starting..."

eb-----------------------------------------------------------------|
Bb-----------------------------------------------------------------|
Gb-----------------------------------------------------------------|
Db---------------------------------5~--5-7-8-----------------------|
Ab----------/10-8~-0----------6-5~-3~--3-5-6-12-10-8-5~--3~--------|
Eb-/10/-3-3~---------10-8-6-3~-----3~--3-5-6-10-8--6-3~--1~--------|

eb-----------------------------------------------------------------|
Bb-----------------------------------------------------------------|
Gb-----------------------------------------------------------------|
Db---------------------------------5~--5-7-8-----------------------|
Ab----------/10-8~-0----------6-5~-3~--3-5-6-12-10-8-5~------------|
Eb-/10/-3-3~---------10-8-6-3~-----3~--3-5-6-10-8--6-3~------------|


Second Verse: (1:28 - 1:42)

"Spill on through killing fields..."

Play the verse riff 4 times


Second Pre-Chorus: (1:42 - 1:57)

"So you can take to the grave..."

eb-----------------------------------------------------------------|
Bb-----------------------------------------------------------------|
Gb-----------------------------------------------------------------|
Db-----------------------------------------------------------------|
Ab-8~---------------------8~---------------------------------------|
Eb-6~----5-3-0-2v---3-5---6~----5-3-0-2v---3-3---------------------|

eb-----------------------------------------------------------------|
Bb-----------------------------------------------------------------|
Gb-----------------------------------------------------------------|
Db-----------------------------------------------------------------|
Ab-8~---------------------8~----------------3---3------------------|
Eb-6~----5-3-0-2v---3-5---6~----5-3-0-3-5-6---6--------------------|


Second Chorus: (1:57 - 2:25)

"The end is now starting..."

Play the following riff 2 times
eb-----------------------------------------------------------------|
Bb-----------------------------------------------------------------|
Gb-----------------------------------------------------------------|
Db---------------------------------5~--5-7-8-----------------------|
Ab----------/10-8~-0----------6-5~-3~--3-5-6-12-10-8-5~--3~--------|
Eb-/10/-3-3~---------10-8-6-3~-----3~--3-5-6-10-8--6-3~--1~--------|


Bridge: (2:25 - 2:54)

"There is no room for..."

Play the following riff 2 times
eb-----------------------------------------------------------------|
Bb-----------------------------------------------------------------|
Gb-----------------------------------------------------------------|
Db-99999999-77777777-55555555-5555---------------------------------|
Ab-77777777-55555555-33333333-2220-5555----------------------------|
Eb---------------------------------3320----------------------------|
   ....................................

"Is there a way to say..."

Now play the following riff 2 times
eb-----------------------------------------------------------------|
Bb-----------------------------------------------------------------|
Gb-----------------------------------------------------------------|
Db-----------------------------------------------------------------|
Ab-7~---7-5-7-/10-9-/3~---5-3-/10-9--------------------------------|
Eb-----------------------------------------------------------------|

Additionally, over the above section, I hear another guitar playing
this in the background
eb-----------------------------------------------------------------|
Bb-------3v------3v------3v----------------------------------------|
Gb-----4-------4-------4-------------------------------------------|
Db-----------------------------------------------------------------|
Ab-----------------------------------------------------------------|
Eb-----------------------------------------------------------------|


Third Pre-Chorus: (2:54 - 3:08)

"So you can take to the grave..."

Same as Second Pre-Chorus


Third Chorus: (3:08 - 3:37)

"The end is now starting..."

Same as Second Chorus


Outro: (3:37 - 4:02)

Same as First Chorus

Vocal lead transposed for guitar
eb-----------------------------------------------------------------|
Bb----15-13--------------------------------------------------------|
Gb-12-------14-12-15-14-10-----------------------------------------|
Db-------------------------12h13-12-10-12----12h13-12-10-12--------|
Ab----------------------------------------10----------------10-----|
Eb-----------------------------------------------------------------|

eb-----------------------------------------------------------------|
Bb----15-13--------------------------------------------------------|
Gb-12-------14-12-15-14-10-----------------------------------------|
Db-------------------------12h13-12-10-12----12h13-12~-------------|
Ab----------------------------------------10-----------------------|
Eb-----------------------------------------------------------------|


Drum Outro: (4:02 - 4:20)

eb-----------------------------------------------------------------|
Bb-----------------------------------------------------------------|
Gb-----------------------------------------------------------------|
Db-----------------------------------------------------------------|
Ab-55555555555555555555--------------------------------------------|
Eb-33333333333333333333--------------------------------------------|
Suggest correction
Give kudos to tab author, rate the tab!
1 2 3 4 5
comments
print report bad tab
guest
You may want to rate the tab now too:
select rating
Please do not post tabs as comments. Select "correction" instead!