Oops, an error
Loading. Please wait.

Crossing The Frame Bass Tab

version 1
version 1

Whole song

2,917 views 1 this week
1 commentread comment
1 2 3 4 5
please rate
add to favorites
launch autoscroll
font size
0
reset
guitar tuner
Tab Pro tools
  • play this tab
  • loop segment
  • change instrument
  • show fretboard
  • metronome
×
Best way to learn
"Crossing The Frame"
Autoscroll
slow
fast
+/-
esc
set tempo
stop
Contributor
Difficulty
novice
ANGRY BEAVER BASS TABS


                          CROSSING THE FRAME (Bassline)
                        As recorded by Coheed And Cambria
(From the 2005 Album GOOD APOLLO, I'M BURNING STAR IV - VOLUME ONE: FROM FEAR THROUGH THE EYES OF MADNESS)

Words by Claudio Sanchez
Music by Coheed And Cambria
Transcribed by Nero15 + sprinklerthief

Gtr I (Eb Ab Db Gb) - 'elec.'
Gtr II (Eb Ab Db Gb Bb Eb) - 'keyboard arr. for gtr.'

 Intro
  Q=162
 3/8       4/4
  Gtr I
  E  Q      E E E E E E E E   +E   E E E E E Q
|--------||-----------------|-------------------|
|--------||-----------------|------------4h5p4--|
|--------||-----------7s9-7-|-(7)\-5---5--------|
|---14\--||-7-5---5---------|--------3----------|


  E E E E E E E E   +E   E E E E E E E
|-----------------|----------------------|
|-----------------|------------4h5p4-----|
|-----------7s9-7-|-(7)\-5---5-------5---|
|-7-5---5---------|--------3-------------|


  E E E E E E E E   E  E E E E E E E   E E E E E E E E   +E   E E E E E Q
|-----------------|------------------|-----------------|--------------------||
|-----------------|----------4h5p4---|-----------------|------------4-5-7---||
|-----------7s9-7-|-9\-5---5-------5-|-----------7s9-7-|-(7)\-5---5---------||
|-7-5---5---------|------3-----------|-7-5---5---------|--------3-----------||


 1st Verse
  E E E E E a E E E   E e E E e E E E   E E E E E a E E E   E e E E e E Q
|-------------------|-----------------|-------------------|------------------|
|-------------------|-----------------|-------------------|------------------|
|-------5---7h9---7-|---5-----5-5-----|-------5---7h9---7-|---5-----5-5------|
|-7-5---------------|-----5-7-----7-5-|-7-5---------------|-----5-7-----7\---|


  E E E a E E a E E E   E e E e e E e E
|---------------------|-----------------|
|---------------------|-----------------|
|-------4h5---7h9---7-|---5-----5-5-----|
|-7-5-----------------|-----5-7-----7-5-|


  E E E a E E a E E E   E e E E e E Q
|---------------------|-------------------|
|---------------------|-------------------|
|-------4h5---7h9---7-|---5-----5-5-------|
|-7-5-----------------|-----5-7-----7\----|


  E E E a E E a  E E  E   E E E E   E  E E E
|-----------------------|--------------------|
|-----------------------|--------------------|
|-------7h9---9h10---12-|---x-7-9-/12-10-9-7-|
|-7-5-------------------|--------------------|


  E E E E E  E E  E   E E E E   E  E E E
|-------------------|---------------------|
|-------------------|---------------------|
|-------7h9-10---12-|---x-7-9-/12-10-9-7--|
|-7-5---------------|---------------------|


  E E E E E a E E E   E e E E e E E E   E E E E E a E E E   E e E E e E Q
|-------------------|-----------------|-------------------|------------------||
|-------------------|-----------------|-------------------|------------------||
|-------5---7h9---7-|---5-----5-5-----|-------5---7h9---7-|---5-----5-5------||
|-7-5---------------|-----5-7-----7-5-|-7-5---------------|-----5-7-----7\---||


 1st Pre-chorus
  E E E E E E E E   E E E E E E E E   E E E E E E E E   E E E E E E E E
|-----------------|-----------------|-----------------|------------------|
|-------4---------|-----------------|-------4---------|------------------|
|---------5-------|-----------------|---------5-------|---------9-9-9-7--|
|-5-5-------7---3-|---3---0-7-7-7-5-|---5-------7---3-|---3---5----------|


  E E E E E E E E   E E E E E E E E   E E E E E E E E   E E E E E E Q
|-----------------|-----------------|-----------------|------------------||
|-------4---------|-----------------|-------4---------|------------------||
|---------5-------|---------9-9-9-7-|---------5-------|-------5---7-7\---||
|---5-------7---3-|---3-3-5---------|---5-------7---5-|---7--------------||


 Chorus
  $
  E E Q  E E Q    E E Q  E E Q    E E Q  E E E E
|---------------|---------------|----------------|
|---------------|---------------|----------------|
|---------------|---------------|----------------|
|-3-3-3--3-3-3--|-3-3-3--3-3-3--|-3-3-3--3-3-3-0-|


  E E E E E E E E   E E Q.   E Q
|-----------------|-----------------|
|-----------------|-----------------|
|-------------0-2-|-0---------------|
|---0---0-2-3-----|---2-3----3-3----|


    E E Q  E E Q    E E Q  E E E E   E E E E E E E E   E E Q.   E Q
||----------------|----------------|-----------------|----------------||
||o---------------|----------------|-----------------|---------------o||
||o---------------|----------------|-------------0-2-|-0-------------o||
||--3-3-3--3-3-3--|-3-3-3--3-3---0-|---0---0-2-3-----|---2-3----3-3---||


                          To Coda
  E E Q  E E Q    E E Q  E E E E   E E E E E E E E
|---------------|----------------|-----------------||
|---------------|----------------|-----------------||
|---------------|----------------|-----------------||
|-3-3-3--3-3-3--|-3-3-3--3-3---0-|---0---0---0-0---||


 2nd Verse
  E E E E E a E E E   E e E E e E E E   E E E E E a E E E   E e E E e E Q
|-------------------|-----------------|-------------------|------------------|
|-------------------|-----------------|-------------------|------------------|
|-------5---7h9---7-|---5-----5-5-----|-------5---7h9---7-|---5-----5-5------|
|-7-5---------------|-----5-7-----7-5-|-7-5---------------|-----5-7-----7\---|


  E E E E E a E E E   E e E e e E e E   E E E E E a E E E   E e E E e E Q
|-------------------|-----------------|-------------------|------------------|
|-------------------|-----------------|-------------------|------------------|
|-------5---7h9---7-|---5-----5-5-----|-------5---7h9---7-|---5-----5-5------|
|-7-5---------------|-----5-7-----7-5-|-7-5---------------|-----5-7-----7\---|


 2nd Pre-chorus
  E E E E E E E E   E E E E E E E E   E E E E E E E E   E E E E E E E E
|-----------------|-----------------|-----------------|------------------|
|-------4---------|-----------------|-------4---------|------------------|
|---------5-------|-----------------|---------5-------|---------9-9-9-7--|
|-5-5-5-----7---3-|---3---0-7---7-5-|---5-------7---3-|---3---5----------|


                                                        D.S. al Coda
  E E E E E E E E   E E E E E E E E   E E E E E E E E   E E E E E e Q
|-----------------|-----------------|-----------------|------------------||
|-------4---------|-----------------|-------4---------|------------------||
|---------5-------|---------9-9-9-7-|---------5-------|-------5---7-7\---||
|---5-------7---3-|---3---0---------|---5-------7---5-|---7--------------||


                       Bridge
  &
  E E E E E  E  E  E    E E  E  E E E  E  E
|--------------------||---------------------|
|--------------------||---------------------|
|--------------------||-5-5--5--5-5-5--5--5-|
|---0---0---12-12\---||---------------------|
|
|                       Gtr II
| W                     E E  E  E E E  E  E
|--------------------||-----10-10-----10-10-|
|--------------------||---------------------|
|--------------------||-7-7---------7-------|
|--------------------||---------------------|
|--------------------||---------------------|
|--------------------||---------------------|


  E E  E  E E E  E  E   E E E E E E E E   E E E E E E E E
|---------------------|-----------------|-------------------|
|---------------------|-----------------|-------------------|
|-5-5--5--5-5-5--5--5-|-----------------|-------------------|
|---------------------|-5-5-5-5-5-5-5-5-|-5-5-5-5-5-5-5-5---|
|
| E E  E  E E E  E  E   E E E E E E E E   E E E E E E E E
|-----10-10-----10-10-|-----5-5-----5-5-|-----5-5-------5---|
|---------------------|-----------------|-------------------|
|-7-7---------7-------|-2-2-------2-----|-2-2-------2-2-----|
|---------------------|-----------------|-------------------|
|---------------------|-----------------|-------------------|
|---------------------|-----------------|-------------------|


  E E E E E E E E   E E E E E E E  E   E E E E E E E E   E E E E E E E E
|-----------------|------------------|-----------------|------------------|
|-----------------|------------------|-----------------|------------------|
|-4-4-4-4-4-4-4-4-|-4-4-4-4-4-4-4--4-|-----------------|------------------|
|-----------------|------------------|-5-5-5-5-5-5-5-5-|-5-5-7-7-5-5-7-7--|
|
| E E E E E E E E   E E E E E E E  E   E E E E E E E E   E E E E E E E E
|-----9-9-----9-9-|-----9-9-----9-10-|-----5-5-----5-5-|-----5-5-----5-5--|
|-----------------|------------------|-----------------|------------------|
|-6-6-------6-----|-6-6-------6------|-2-2-------2-----|-2-2-------2------|
|-----------------|------------------|-----------------|------------------|
|-----------------|------------------|-----------------|------------------|
|-----------------|------------------|-----------------|------------------|


  E E E E E E E E   E E E E E E E E   E E E E E E E E   E E E E E E E E
|-----------------|-----------------|-----------------|------------------|
|-----------------|-----------------|-----------------|------------------|
|-----------------|-----------------|-5-5-5-5-5-5-5---|-------------5-5--|
|-3-3-3-3-3-3-3-3-|-3-3-3-3-3-3-3-3-|-3-3-3-3-3-3-3-3-|-2-3-2-3-0-0------|
|
| E E E E E E E E   E E E E E E E E   E E E E E E E E   E E E E E E E E
|-----3-3-----3-3-|-----3-3-----3-3-|-----3-3-----3-3-|-----3-3-----3-3--|
|-----------------|-----------------|-----------------|------------------|
|-0-0-----0-0-----|-0-0-----0-0-----|-0-0-----0-0-----|-0-0-----0-0------|
|-----------------|-----------------|-----------------|------------------|
|-----------------|-----------------|-----------------|------------------|
|-----------------|-----------------|-----------------|------------------|


  E E E E E E E E   E E E E E E E E   E E E E E E E E   E E E E E E E E
|-----------------|-----------------|-----------------|------------------|
|-----------------|-----------------|-----------------|------------------|
|-5-5-5-5-5-5-5-5-|-5-5-5-5-5-5-5-5-|-----------------|------------------|
|-----------------|-----------------|-5-5-5-5-5-5-5-5-|-5-5-5-5-5-5-5-5--|


  E E E E E E E E   E E E E E E E E   E E E E E E E E   E E Q  E E Q
|-----------------|-----------------|-----------------|-----------------|
|-----------------|-----------------|-----------------|-----------------|
|-4-4-4-4-4-4-4-4-|-4-4-4-4-4-4-4-4-|-----------------|-----------------|
|-----------------|-----------------|-5-5-5-5-5-5-5-5-|-5-5-7--5-5-7\---|


  E E E E Q  E E   E E E E Q  Q    E E E E E E E E   E E E E E E E E
|----------------|---------------|-----------------|------------------||
|----------------|---------------|-----------------|------------------||
|---------5------|---5-----5-----|---------5---5---|---5-----5---5----||
|-3-3-3-3----3-3-|-3---3-3----3--|-3-3-3-3---3---3-|-3---3-3---3---3--||


 3rd Pre-chorus
  E E E E E E E E   E E E E E E E E   E E E E E E E E   E E E E E E E E
|-----------------|-----------------|-----------------|------------------|
|-------4---------|-----------------|-------4---------|------------------|
|---------5-------|---------9-9-9-7-|---------5-------|---------9-9-9-7--|
|-5-5-------7---3-|---3---5---------|---5-------7---3-|---3---5----------|


  E E E E E E E E   E E E E E E E E   E E E E E E E E
|-----------------|-----------------|-----------------|
|-------4---------|-----------------|-------4---------|
|---------5-------|---------9-9-9-7-|---------5-------|
|---5-------7---3-|---3---5---------|---5-------7-0-5-|


  E E E E E E E E   E E E E E  E  Q
|-----------------|---------------------||
|-----------------|---------------------||
|-------5---7-7---|---5---7---10-10\----||
|---7-----------7-|---------------------||


 Outro Chorus
  E E Q  E E Q    E E Q  E E Q    E E Q  E E E E
|---------------|---------------|----------------|
|---------------|---------------|----------------|
|---------------|---------------|----------------|
|-3-3-3--3-3-3--|-3-3-3--3-3-3--|-3-3-3--3-3-3-0-|


  E E E E E E E E   E E Q.   E Q
|-----------------|-----------------|
|-----------------|-----------------|
|-------------0-2-|-0---------------|
|---0---0-2-3-----|---2-3----3-3----|


                                                      1.,2.
    E E Q  E E Q    E E Q  E E E E   E E E E E E E E   E E Q.   E Q   3x
||----------------|----------------|-----------------|----------------||
||o---------------|----------------|-----------------|---------------o||
||o---------------|----------------|-------------0-2-|-0-------------o||
||--3-3-3--3-3-3--|-3-3-3--3-3-3-0-|---0---0-2-3-----|---2-3----3-3---||


  3.
  E E H.        +W           +W           +W
|-------------|------------|------------|--------*|
|-------------|------------|------------|--------*|
|-0-----------|------------|------------|--------*|
|---2-3-------|-(3)--------|-(3)--------|-(3)----*|


Duration Legend
---------------
W - whole; H - half; Q - quarter; E - 8th; S - 16th; T - 32nd; X - 64th; a - acciaccatura
+ - note tied to previous; . - note dotted; .. - note double dotted
Uncapitalized letters represent notes that are staccato (1/2 duration)
Irregular groupings are notated above the duration line
Duration letters will always appear directly above the note/fret number it represents the
duration for.  Duration letters with no fret number below them represent rests.  Multi-
bar rests are notated in the form Wxn, where n is the number of bars to rest for.  Low
melody durations appear below the staff

Tablature Legend
----------------
 h   - hammer-on
 p   - pull-off
 b   - bend
 pb  - pre-bend
 r   - bend release (if no number after the r, then release immediately)
 /\  - slide into or out of (from/to "nowhere")
 s   - legato slide
 S   - shift slide
  - natural harmonic
[n]  - artificial harmonic
n(n) - tapped harmonic
 ~   - vibrato
 tr  - trill
 T   - tap
 TP  - trem. picking
 PM  - palm muting
\n/  - tremolo bar dip; n = amount to dip
 \n  - tremolo bar down
 n/  - tremolo bar up
/n\  - tremolo bar inverted dip
 =   - hold bend; also acts as connecting device for hammers/pulls
 <>  - volume swell (louder/softer)
 x   - on rhythm slash represents muted slash
 o   - on rhythm slash represents single note slash

Misc Legend
-----------
 |  - bar
||  - double bar
||o - repeat start
o|| - repeat end
*|  - double bar (ending)
 :  - bar (freetime)
 $  - Segno
 &  - Coda
Tempo markers -  = BPM(8/16=s8/s16), where s8 = swing 8ths, s16 = swing 16ths

comments
We did not receive enough feedback on this tab! Please rate:
print report bad tab
1 2 3 4 5
1 comment total.
0 reply
Prize F Inferno wrote on March 14 2010, 07:13 pm

Good tab 100% correct

I want to post or [tab]
guest
You may want to rate the tab now too:
select rating
Please do not post tabs as comments. Select "correction" instead!