Oops, an error
Loading. Please wait.

Cuts Marked In The March Of Men bass

version 2
version 2

Whole song

Interactive

1,607 views 1 this week
1 commentread comment
1 2 3 4 5
1 last vote to show rating
add to favorites
×
Save as Personal and add changes to this tab that will be seen only by you. Learn more ›
×
You can save this tab as Personal to edit and correct it or add notes. All changes will be seen only by you. Learn more »
launch autoscroll
font size
0
reset
guitar tuner
edit
Autoscroll
slow
fast
+/-
esc
set tempo
stop
Author
Gtr I (E A D G) - 'Untitled'

 Intro
  Moderate Rock Q.=62
  $
 6/8
  Gtr I
  S S E H      Q.   S S S S S S   S S E. S S S Q    S S Q  S S S S S S
|------------|------------------|-----------------|--------------------||
|------------|------------------|-----------------|--------------------||
|------------|------2-2---------|--------4--------|--------2-2---------||
|-2-2--------|----------5-5-4p0-|-2-2------5-5----|-4-4--------5-5-4p0-||


   Verse
    S S E. S S S E. S   S S Q  S S S S S S
||--------------------|--------------------|
||o-------------------|--------------------|
||o--------4--------2-|--------2-2---------|
||--2-2------5-5------|-4-4--------5-5-4p0-|


  S S E. S S S Q    S S Q  S S S S S S
|-----------------|---------------------||
|-----------------|--------------------o||
|--------4--------|--------2-2---------o||
|-2-2------5-5----|-4-4--------5-5-4p0--||


  S S E. S S S Q    S S Q  S S S S S S
|-----------------|--------------------|
|-----------------|--------------------|
|--------4--------|--------2-2---------|
|-2-2------5-5----|-4-4--------5-5-4p0-|


                                To Coda
  S S E. S S S E. S   S S Q  S S S S S S
|-------------------|---------------------|
|-------------------|---------------------|
|--------4--------2-|--------2-2----------|
|-2-2------5-5------|-4-4--------5-5-4p0--|


  S S E. S S S Q    S S Q  S S S S S S
|-----------------|--------------------|
|-----------------|--------------------|
|--------4--------|--------2-2---------|
|-2-2------5-5----|-4-4--------5-5-4p0-|


  S S E. S S S E. S   S S Q  S S S S S S
|-------------------|---------------------||
|-------------------|---------------------||
|--------4--------2-|--------2-2----------||
|-2-2------5-5------|-4-4--------5-5-4p0--||


   Pre-Chorus
    &
    S S S S S S S S S S S S    S  S  S  S  S  S  S  S  S  S  S S  4x
||--------------------------|-------------------------------------||
||o-------------------------|------------------------------------o||
||o-------------------7-7---|------------------------------------o||
||--2-2-2-2-5-5-7-7-7-----0-|-10-10-10-10-10-10-10-10-10-10-10-0--||


 Chorus
   S  S  S  S  S  S  S  S  S  S  S  S   S S S S S S S S S S S S
|-------------------------------------|-------------------------|
|-------------------------------------|-------------------------|
|-------------------------------------|-------------------------|
|-10-10-10-10-10-10-10-10-10-10-10-12-|-7-7-7-7-7-7-7-7-7-7-7-0-|


  S S S S S S S S S S S S   S S S S S S S S S S S S
|-------------------------|-------------------------|
|-------------------------|-------------------------|
|-------------------------|-------------------------|
|-5-5-5-5-5-5-5-5-5-5-5-0-|-3-3-3-3-3-3-3-3-3-3-3-0-|


   S  S  S  S  S  S  S  S  S  S  S S   S S S S S S S S S S S S
|------------------------------------|-------------------------|
|------------------------------------|-------------------------|
|------------------------------------|-------------------------|
|-10-10-10-10-10-10-10-10-10-10-10-0-|-7-7-7-7-7-7-7-7-7-7-7-0-|


  S S S S S S S S S S S S   S S S S S S S S S S S S
|-------------------------|-------------------------|
|-------------------------|-------------------------|
|-------------------------|-------------------------|
|-5-5-5-5-5-5-5-5-5-5-5-0-|-3-3-3-3-3-3-3-3-3-3-3-0-|


   S  S  S  S  S  S  S  S  S  S  S S   S S S S S S S S S S S S
|------------------------------------|-------------------------|
|------------------------------------|-------------------------|
|------------------------------------|-------------------------|
|-10-10-10-10-10-10-10-10-10-10-10-0-|-7-7-7-7-7-7-7-7-7-7-7-0-|


  S S S S S S S S S S S S   S S S S S S S S S S S S
|-------------------------|-------------------------|
|-------------------------|-------------------------|
|-------4h5p4-------------|-------2h3p2-------------|
|-5-5-5-------5-5-5-5-5-0-|-3-3-3-------3-3-3-3-3-0-|


   S  S  S  S  S  S  S  S  S  S  S S   S S S S S S S S S S S S
|------------------------------------|-------------------------|
|------------------------------------|-------------------------|
|------------------------------------|-------------------------|
|-10-10-10-10-10-10-10-10-10-10-10-0-|-7-7-7-7-7-7-7-7-7-7-7-0-|


                                      D.S. al Coda
  S S S S S S S S S S S S   S S S S S S S S S S S S
|-------------------------|-------------------------||
|-------------------------|-------------------------||
|-------------------------|-------------------------||
|-5-5-5-5-5-5-5-5-5-5-5-0-|-3-3-3-3-3-3-3-3-3-3-3-0-||


   Breakdown
    Slower Q.=60
    S S E E E E S S   S S E E S S S S S S
||------------------|---------------------|
||o---------------7-|---------------5-----|
||o-----------7-7---|-0-4-5-5-0-2-5---5-4-|
||--7p5-5-5-9-------|---------------------|


  S S E E E E S S   S S E E S S S S S S
|-----------------|----------------------||
|---------------7-|---------------5-----o||
|-----------7-7---|-0-4-5-5-0-2-5---5-4-o||
|-7p5-5-5-9-------|----------------------||


 Interlude
  H.        +H.        S S e e e e e   e e e S S S S E
|---------|----------|---------------|------------------|
|---------|----------|---------------|------------------|
|-0-------|-(0)------|-2p0-0-0-0-0-0-|-0-0-0-0-4-5-7----|
|---------|----------|---------------|------------------|


  S S S S S S S S S S S S   S S S S S S S S S S S S
|-------------------------|-------------------------|
|-------------------------|-----------------2-------|
|-2-2---0-0---------0-0---|-0-0---4h5---0-4---4-2-4-|
|-------------2-2---------|-------------------------|


  S S S S S S S S S S S S   S S S S S S S S S S E
|-------------------------|-----------------------|
|-------------------------|-----------------------|
|-2-2---0-0---------0-0---|-0-0---0-4h5-0-4-5-7---|
|-------------2-2---------|-----------------------|


  H    +E  E   Q  E E E S S
|------------|--------------|
|------------|--------------|
|------------|----------4-5-|
|-2----(2)-0-|-3--3-2-3-----|


  S S S S S S S S S S S S   S S S S S S S S S S S S
|-------------------------|-------------------------||
|-------------------------|-----------------2-------||
|-2-2---0-0---------0-0---|-0-0---4h5---0-4---4-2-4-||
|-------------2-2---------|-------------------------||


 Bridge
  S S S S S S S S S S S S   S S S S S S S S S S S S
|-------------------------|-------------------------|
|-------------------------|-------------------------|
|-------------------------|-------------------------|
|-5-5---5-5---5-5---5-5---|-5-5---5-5---5-5---5-5---|


  S S S S S S S S S S S S   S S S S S S S S S S S S
|-------------------------|---------------------------|
|-------------------------|---------------------------|
|-5-5---5---5-5-5---5---5-|-5-5---5---5-5-7-7-7-7-7---|
|-------------------------|---------------------------|


  S S S S S S S S S S S S   S S S S S S S S S S S S
|-------------------------|-------------------------|
|-------------------------|-------------------------|
|-------------------------|-------------------------|
|-5-5---5-5---5-5---5-5---|-5-5---5-5---5-5---5-5---|


  S S S S S S S S S S S S   S S S S S S S S S S S S
|-------------------------|---------------------------|
|-------------------------|---------------------------|
|-5-5---5---5-5-5---5---5-|-5-5---5---5-5---5---5-5---|
|-------------------------|---------------------------|


  S S S S S S S S S S S S   S S S S S S S S S S S S
|-------------------------|-------------------------|
|-------------------------|-------------------------|
|-------------------------|-------------------------|
|-5-5---5-5---5-5---5-5---|-5-5---5-5---5-5---5-5---|


  S S S S S S S S S S S S   S S S S S S S S S S S S
|-------------------------|---------------------------|
|-------------------------|---------------------------|
|-5-5---5---5-5-5---5---5-|-5-5---5---5-5-7-7-7-7-7---|
|-------------------------|---------------------------|


  S S S S S S S S S S S S   S S S S S S S S S S S S
|-------------------------|-------------------------|
|-------------------------|-------------------------|
|-------------------------|-------------------------|
|-5-5---5-5---5-5---5-5---|-5-5---5-5---5-5---5-5---|


  S S S S S S S S S S S S   S S S S S S Q.
|-------------------------|-------------------||
|-------------------------|-------------------||
|-5-5---5---5-5-5---5---5-|-5-5---5---5-------||
|-------------------------|-------------------||


   Pre-Chorus
    A Tempo Q.=62
    S S S S S S S S S S S S    S  S  S  S  S  S  S  S  S  S  S  S  4x
||--------------------------|--------------------------------------||
||o-------------------------|-------------------------------------o||
||o-------------------7-7---|-------------------------------------o||
||--2-2-2-2-5-5-7-7-7-----0-|-10-10-10-10-10-10-10-10-10-10-10-10--||


 Out-Chorus
   S  S  S  S  S  S  S  S  S  S  S  S   S S S S S S S S S S S S
|-------------------------------------|-------------------------|
|-------------------------------------|-------------------------|
|-------------------------------------|-------------------------|
|-10-10-10-10-10-10-10-10-10-10-10-12-|-7-7-7-7-7-7-7-7-7-7-7-0-|


  S S S S S S S S S S S S   S S S S S S S S S S S S
|-------------------------|-------------------------|
|-------------------------|-------------------------|
|-------------------------|-------------------------|
|-5-5-5-5-5-5-5-5-5-5-5-0-|-3-3-3-3-3-3-3-3-3-3-3-0-|


   S  S  S  S  S  S  S  S  S  S  S S   S S S S S S S S S S S S
|------------------------------------|-------------------------|
|------------------------------------|-------------------------|
|------------------------------------|-------------------------|
|-10-10-10-10-10-10-10-10-10-10-10-0-|-7-7-7-7-7-7-7-7-7-7-7-0-|


  S S S S S S S S S S S S   S S S S S S S S S S S S
|-------------------------|-------------------------|
|-------------------------|-------------------------|
|-------4h5p4-------------|-------2h3p2-------------|
|-5-5-5-------5-5-5-5-5-0-|-3-3-3-------3-3-3-3-3-0-|


   S  S  S  S  S  S  S  S  S  S  S  S   S S S S S S S S S S S S
|-------------------------------------|-------------------------|
|-------------------------------------|-------------------------|
|-------------------------------------|-------------------------|
|-10-10-10-10-10-10-10-10-10-10-10-12-|-7-7-7-7-7-7-7-7-7-7-7-0-|


  S S S S S S S S S S S S   S S S S S S S S S S S S
|-------------------------|-------------------------|
|-------------------------|-------------------------|
|-------------------------|-------------------------|
|-5-5-5-5-5-5-5-5-5-5-5-0-|-3-3-3-3-3-3-3-3-3-3-3-0-|


   S  S  S  S  S  S  S  S  S  S  S  S   S S S S S S S S S S S S
|-------------------------------------|-------------------------|
|-------------------------------------|-------------------------|
|-------------------------------------|-------------------------|
|-10-10-10-10-10-10-10-10-10-10-10-12-|-7-7-7-7-7-7-7-7-7-7-7-0-|


  S S S S S S S S S S S S   H.
|-------------------------|-------*|
|-------------------------|-------*|
|-------------------------|-------*|
|-5-5-5-5-5-5-5-5-5-5-5-0-|-3-----*|

            
            
Suggest correction
Creating personal tab
Creating personal tab
You can edit any tab online and save it as your Personal.

You can edit, replace or remove any tab part or add personal notes – all changes will be seen only by you.

Personal tabs can be accessed anytime from any device, even offline.
Learn more »
Give kudos to tab author, rate the tab!
1 2 3 4 5
comments
print report bad tab
1 comment total.
0 reply
guitarkoto 10 Oct 14, 2008 01:18 AM

cool man=)

guest
You may want to rate the tab now too:
select rating
Wanna post a correction for this tab? Suggest correction