Oops, an error
Loading. Please wait.

Dark Side Of Me tab

version 1
version 1

Whole song

Interactive

29,087 views 45 this week
no commentswrite comment
1 2 3 4 5
x 4
add to favorites
×
Save as Personal and add changes to this tab that will be seen only by you. Learn more ›
×
You can save this tab as Personal to edit and correct it or add notes. All changes will be seen only by you. Learn more »
launch autoscroll
font size
0
reset
how to read this tab
guitar tuner
edit
Autoscroll
slow
fast
+/-
esc
set tempo
stop
Author
Difficulty
Unregistered
Tuning: Standard

[Verse]
(lead part over the verse chords)
e|--------------------------------------------------------------------------|
B|--------------------------------------------------------------------------|
G|------3---0-0----5---0-0----8---7--5-7--5--3------------------------------|
D|--------------------------------------------------------------------------|
A|--------------------------------------------------------------------------|
E|--------------------------------------------------------------------------|

(last line of verse lead goes like this, and those are tens)
e|--------------------------------------------------------------------------|
B|--------------------------------------------------------------------------|
G|------3---0-0----5---0-0----8---7--8-7--8--1010101010101010---------------|
D|--------------------------------------------------------------------------|
A|--------------------------------------------------------------------------|
E|--------------------------------------------------------------------------|

[Verse] 
(starts halfway through verse 1
(dist. & palm mute)                 
e|---------------------------------|    
B|---------------------------------|   
G|---5----------------3------------| 
D|---5(x16)---6-------3(x16)-------|    
A|---3--------6(x8)---1------------|    
E|------------4--------------------|    

[Chorus] 
e|--------------------------------------------------------------------------|
B|--------------------------------------------------------------------------|
G|---------------------5----------------------------------------------------|
D|---3--------6--------5(x16)---8-------8-----------------8\1---------------|
A|---3(x16)---6(x16)---3--------8(x8)---8(x6 palm mute)---8\1---------------|
E|---1--------4-----------------6-------6-----------------6\3---------------|
                                                                               
[Verse 2]
(lead part is a bit different here - first line is the same)
e|--------------------------------------------------------------------------|
B|--------------------------------------------------------------------------|
G|------3---0-0----5---0-0----8---7--5-7--5--3------------------------------|
D|--------------------------------------------------------------------------|
A|--------------------------------------------------------------------------|
E|--------------------------------------------------------------------------|

(corresponding line slightly different)
e|--------------------------------------------------------------------------|
B|--------------------------------------------------------------------------|
G|------3---0-0----5----7p5----8--7--5-7------------------------------------|
D|--------------------------------------------------------------------------|
A|--------------------------------------------------------------------------|
E|--------------------------------------------------------------------------|

[Chorus] 
e|--------------------------------------------------------------------------|
B|--------------------------------------------------------------------------|
G|---------------------5----------------------------------------------------|
D|---3--------6--------5(x16)---8-------8-----------------8\1---------------|
A|---3(x16)---6(x16)---3--------8(x8)---8(x6 palm mute)---8\1---------------|
E|---1--------4-----------------6-------6-----------------6\3---------------|

[Bridge]
e|--------------------------------------------------------------------------|
B|--------------------------------------------------------------------------|
G|-------------5------------------------------------------------------------|
D|---6---------5(x16)-------------------------------------------------------|
A|---6(x16)----3------------------------------------------------------------|
E|---4----------------------------------------------------------------------|

            
            
Suggest correction
Creating personal tab
Creating personal tab
You can edit any tab online and save it as your Personal.

You can edit, replace or remove any tab part or add personal notes – all changes will be seen only by you.

Personal tabs can be accessed anytime from any device, even offline.
Learn more »
comments
print report bad tab
guest
Wanna post a correction for this tab? Suggest correction