Oops, an error
Loading. Please wait.

Delirium Trigger Tab

version 2
version 2

Whole song

25,855 views 54 this week
3 commentsread comments
1 2 3 4 5
accurate
x 14
add to favorites
launch autoscroll
font size
0
reset
how to read this tab
guitar tuner
Tab Pro tools
  • play this tab
  • loop segment
  • change instrument
  • show fretboard
  • metronome
Autoscroll
slow
fast
+/-
esc
set tempo
stop
Contributor
-------------------------------------------------------------------------------
                      DELIRIUM TRIGGER - Coheed and Cambria
-------------------------------------------------------------------------------

Tabbed by: joecool71
Email: mattconellan@yahoo.com, mconne@lincoln.navy.mil 

Tuning: Drop D (D A D G B E)

Here's the fourth song in my new Coheed series. This song has a really cool sound to
it. The title seems fitting.

Intro
e|---------------------------------------------------------------------------|
B|-15-------------------------------------15---------------------------------|
G|----14----15-14----12----------14-15-------14----15-14---------------------|
D|-------12-------15----14-15-12-------X3-------12-------15-10-10-10-10-10-8-|
A|----------------------------------------------------------10-10-10-10-10-8-|
D|----------------------------------------------------------10-10-10-10-10-8-|

Delirium verse (chords)
e|----------------------------|
B|----------------------------|
G|-10---9/10---10\7---12---10-|
D|-0----0-0----0--0---12---10-|
A|-8----7/8----8-\5---10---8--|
D|-0----0-0----0--0-----------|

Delirium verse lead (chords)
e|-13--------------------|
B|-15---17---15---13--11-|
G|-14---17---14---12--10-|
D|-12---15---12---10--8--|
A|-----------------------|
D|-----------------------|

Verse 
e|-------------------------------------------------------------------------------------------------|
B|-------------------------------------------------------------------------------------------------|
G|-10---------10---------9/10---------10---------10\7---------7---------12-12-12-12-12-12\10-10-10-|
D|-x----------x----------x------------x----------x------------x---------12-12-12-12-12-12\10-10-10-|
A|-8--8-8-8-8-8--8-8-8-8-7/8--8-8-8-8-8--8-8-8-8-8-\5-5-5-5-5-5-5-5-5-5-10-10-10-10-10-10\8--8--8--|
D|----0-0-0-0----0-0-0-0------0-0-0-0----0-0-0-0------0-0-0-0---0-0-0-0----------------------------|
      . . . .    . . . .      . . . .    . . . .      . . . .   . . . .
Phase II
e|-------------------------|
B|-------------------------|
G|-------------------------|
D|-----------------0-2-3-5-|
A|---1-0---3---1-3---------|
D|-0-----0---0-------------|

Break
e|--------------------------------------------------------------------|
B|--------------------------------------------------------------------|
G|---------------------------10-10---10-10-10/12-12-12-12-12\10-10-10-|
D|-------------0-----0-------0--0--0-0--0--------x--x--x--x-----x--x--|
A|---8-8---8-8---8-8-8-8-8-0-0--0--0-0--0-----10-10-10-10-10\8--8--8--|
D|-0-----0-------0-0-0-0-0---0-----0-0--0-----------------------------|

Phase III
e|-----------0-----------------------------------------|
B|-----1-----------1-----1-------------6---------------|
G|-------3-----3-----3-----3-----7-------7---7-----7---|
D|-0h3-----3-----3-----3-----5h7---7-------7---7-----7-|
A|-----------------------------------5-----------5-----|
D|-----------------------------------------------------|

Chorus
e|--------------------------------------------------------------------------------|
B|--------------------------------------------------------------------------------|
G|-12-12-12--12-8-8-------101010101010101010101010101010101010101010--------------|
D|-10-10-10--10-8-8-0h6-6-8-8-8-8-8-8-8-8-8-8-8-8-8-8-8-8-8-8-8-8-8-0000000000000-|
A|-10-10-10--10-6-6-0h6-6-8-8-8-8-8-8-8-8-8-8-8-8-8-8-8-8-8-8-8-8-8-0000000000000-|
D|-10-10-10--10-----0h6-6-8-8-8-8-8-8-8-8-8-8-8-8-8-8-8-8-8-8-8-8-8-0000000000000-|

Chorus lead
e|-----------------------------------------|-17-|
B|-----------------------------------------|-15-|
G|-10/12-12/14-9/10-10-10/12-12/14-9/10-10-|-14-|
D|-x-----x-----x----x--x-----x-----x----x--|----|
A|-8-/10-10/12-7/8--8--8-/10-10/12-7/8--8--|----|
D|-----------------------------------------|----|

Phase IV
e|-------8-----------8-----------------|
B|---6-----6-----6-----6-----5-----5---|
G|-7---7-----7-7---7-----7-5---5-5---5-|
D|-------------------------------------|
A|-------------------------------------|
D|-------------------------------------|

Phase IV lead
e|-10-----------------------------------8---------------------------|
B|----8-6-8--------------10-8------8------8------8----10-8----------|
G|----------7-----7-9-10------10-9---10-----10-9---10------10-9-7-9-|
D|------------X2----------------------------------------------------|
A|------------------------------------------------------------------|
D|------------------------------------------------------------------|

Phase V (strum this chord over and over)
e|---|
B|---|
G|---|
D|-0-|
A|-0-|
D|-0-|
   .
Phase V lead
E|-------------------------------|
B|-------------------------------|
G|-----------------------9-10-12-|
D|--0-8-7-0-10-0-8-10-12---------|
A|-------------------------------|
D|-------------------------------|


LYRICS AND RIFF PLACEMENT

[INTRO]
[DELIRIUM VERSE W/ LEAD] X2
[VERSE] X2
We're now up here alone terror on the intercom can someone save us?
Systems malfunction blast it this damn machine over and out captain
[VERSE W/ DELIRIUM VERSE LEAD] X2
Something lurks creeps on the countertop somewhere behind you
Parasitic cyst I can't stand to watch it's coming up and out of your chest
[PHASE II] X3½
Remember when we were young
[DELIRIUM VERSE W/ LEAD] X2
Sit right up on the table a photograph of Earth feeding me a way back
Frightened I tear alone or maybe not the only one there
[BREAK]
Hello? Hello... when it rings will you answer?
[DELIRIUM VERSE W/ LEAD & INTRO]
There corner tall short stance it's you
Come on kill me
[PHASE III] X2
You made a good friend to me but while you were outnumbered and torn
They made us do things...
[CHORUS W/ LEAD] X4
Dear God, I don't feel alive when you're cut short of misery
Will you pray it be the end? Give a look surprise wide eyed to me
Then you'll know just what I am the scare that triggers your fear
Come know me in a different light, come know me as God
[PHASE III] X2
You made a good friend to me but while you were outnumbered and torn
They made us do things to you
[PHASE IV W/ LEAD] X4
Run sand hourglass in my time will I be worth?
Spin round carousel when your horse isn't screwed in
[PHASE V W/ LEAD] X6
[CHORUS W/ LEAD] X4
Dear God, I don't feel alive when you're cut short of misery (raise forth lost cause)
Will you pray it be the end? Give a look surprise wide eyed to me (raise forth lost cause)
Then you'll know just what I am (subtle demise the legitimate cry) the scare that triggers your fear
Come know me in a different light, come know me as God (raise forth lost cause)

| /  slide up
| \  slide down
| h  hammer-on
| p  pull-off
| ~  vibrato
| +  harmonic
| x  Mute note
===============================================================================
comments
print report bad tab
3 comments total.
0 reply
snedderpie wrote on November 22 2004, 12:00 am

AWESOME

0 reply
Dystiller wrote on September 10 2006, 03:09 pm

Matt Conellan is the single greatest coheed tabber

0 reply
bobby_splax wrote on March 18 2007, 05:32 pm

tab sounds great but it'd help a load if you could put in like "x8" or something to help ppl out with the chord changes. i'm trying to play along w/ a live show on youtube (lost my cd) and it's kinda hard...

I want to post or [tab]
guest
You may want to rate the tab now too:
select rating
Please do not post tabs as comments. Select "correction" instead!