Oops, an error
Loading. Please wait.

Deranged Tab

version 1
version 1

Whole song

Interactive

3,493 views 3 this week
no commentswrite comment
1 2 3 4 5
please rate
add to favorites
launch autoscroll
font size
0
reset
how to read this tab
guitar tuner
Autoscroll
slow
fast
+/-
esc
set tempo
stop
Help us to improve Ultimate-Guitar.com Take our survey!
×
Author
Difficulty
novice
Deranged
Coheed And Cambria
transcribed by robertsewall

Will add solo/leads tomorrow

    Intro/Verse
E  :3-----3-----3---|--3-----3-----3-|5-----5-----5---|--5-----5-----5-|
B  :--3-------3-----|3-----3-----3---|--7-------7-----|7-----7-----7---|
G  :----3---3-----3-|----3-----3-----|----5---5-----5-|----5-----5-----|
D  :----------------|----------------|----------------|----------------|
A  :----------------|----------------|----------------|----------------|
E  :----------------|----------------|----------------|----------------|

E  :6-----6-----6---|--6-----6-----6-|5-----5-----5---|--5-----5---5---|
B  :--8-------8-----|8-----8-----8---|--7-------7-----|7-----7---7---7-|
G  :----8---8-----8-|----8-----8-----|----7---7-----7-|----7-----------|
D  :----------------|----------------|----------------|----------------|
A  :----------------|----------------|----------------|----------------|
E  :----------------|----------------|----------------|----------------|
    Chorus/Outro
E  :----------------|----------------|----------------|----------------|
B  :----------------|----------------|----------------|----------------|
G  :8-8-8-8-8-8-8-8-|8-8-8-8-8-8-8-8-|8-8-8-8-8-8-8-8-|8-8-8-8-8-8-8-8-|
D  :8-8-8-8-8-8-8-8-|8-8-8-8-8-8-8-8-|8-8-8-8-8-8-8-8-|8-8-8-8-8-8-8-8-|
A  :6-6-6-6-6-6-6-6-|6-6-6-6-6-6-6-6-|6-6-6-6-6-6-6-6-|6-6-6-6-6-6-6-6-|
E  :----------------|----------------|----------------|----------------|

E  :----------------|----------------|----------------|----------------|
B  :----------------|----------------|----------------|----------------|
G  :----------------|----------------|----------------|----------------|
D  :5-5-5-5-5-5-5-5-|5-5-5-5-5-5-5-5-|3-3-3-3-3-3-3-3-|3-3-3-3-3-3-3-3-|
A  :5-5-5-5-5-5-5-5-|5-5-5-5-5-5-5-5-|3-3-3-3-3-3-3-3-|3-3-3-3-3-3-3-3-|
E  :3-3-3-3-3-3-3-3-|3-3-3-3-3-3-3-3-|1-1-1-1-1-1-1-1-|1-1-1-1-1-1-1-1-|
    Post-Chorus
E  :-----------------|-----------------|-----------------|----------------|
B  :-----------------|-----------------|-----------------|----------------|
G  :8-\------x-x---x-|8-\------x-x---x-|8-\------x-x---x-|----------------|
D  :8-\------x-x---x-|8-\------x-x---x-|8-\------x-x---x-|----------------|
A  :6-\------x-x---x-|6-\------x-x---x-|6-\------x-x---x-|----------------|
E  :-----------------|-----------------|-----------------|----------------|
    Bridge
E  :----------------|----------------|----------------|----------------|
B  :----------------|----------------|----------------|----------------|
G  :----------------|----------------|----------------|8---------------|
D  :-5--------------|7-------3-------|----------------|8---------------|
A  :-5--------------|7-------3-------|----------------|6---------------|
E  :-3--------------|5-------1-------|----------------|----------------|

E  :----------------|----------------|----------------|
B  :----------------|----------------|----------------|
G  :----------------|5-------7-------|--------8-------|
D  :----------------|5-------7-------|--------8-------|
A  :----------------|3-------5-------|--------6-------|
E  :----------------|----------------|----------------|
Suggest correction
Give kudos to tab author, rate the tab!
1 2 3 4 5
comments
print report bad tab
guest
You may want to rate the tab now too:
select rating
Wanna post a correction for this tab? Suggest correction