Oops, an error
Loading. Please wait.

Deranged Tab

version 2
version 2

Whole song

Interactive

4,988 views 1 this week
no commentswrite comment
1 2 3 4 5
excellent!
x 3
add to favorites
launch autoscroll
font size
0
reset
how to read this tab
guitar tuner
Tab Pro tools
  • play this tab
  • loop segment
  • change instrument
  • show fretboard
  • metronome
×
Best way to learn
"Deranged"
Autoscroll
slow
fast
+/-
esc
set tempo
stop
Contributor
Difficulty
Tuning
intermediate
D A D G B E
Artist: Coheed and Cambria
Track: "Deranged"
As Played on: Batman: Arkham City Soundtrack
Tuning: Dropped D
v 1.0

Tabbed by Larry Jones

This is Coheeds track off the Arkham City Soundtrack.  In the verses it is
hard to determine if/what Travis' parts are.  Until a live video surfaces,
or until a clearer recording is discovered, those parts cannot be determined
in my opinion.  The rest of this should be pretty spot on though.

http://www.youtube.com/watch?v=woPliVs5uqM (link to audio)

Key:
/ - slide
. - palm mute
v - vibrato
p - pull off
h - hammer on
~ - let ring
b - bend to sound like the following note
r - release bend
* - natural harmonic

Intro:

Claudio Intro Riff: x 1
e---------------------------------------------------------------------------------|
B-8-----8-----8-----8-----8-------10-------10-------10-------10-------10----------|
G---7-----7-----7-----7-----7---7----10-------10-------10-------10-------10----10-|
D-----8-----8-----8-----8-----8---------10-------10-------10-------10-------10----|
A---------------------------------------------------------------------------------|
D---------------------------------------------------------------------------------|
 ..................................................................................

e--------------------------------------------------------------------------------------|
B-11-----11-----11-------11-------11--------10-----10-----10-----10-----10-------8-----|
G---12-----12-----12-------12-------12--12----11-----11-----11-----11-----11--11---7---|
D-----13-----13-----13-------13-------13--------12-----12-----12-----12-----12-------8-|
A--------------------------------------------------------------------------------------|
D--------------------------------------------------------------------------------------|
 ......................................................................................

Note: There is a really strange timing change in the beginning of the song.  Three extra
      notes are attached to the end of the intro riff (as shown above).  Listen to the
      song to get the timing down.

Note: Travis does not play anything for the intro.

1st Verse:

Claudio Verse Riff: x 2
e---------------------------------------------------------------------------------|
B-8-----8-----8-----8-----8-------10-------10-------10-------10-------10----------|
G---7-----7-----7-----7-----7---7----10-------10-------10-------10-------10----10-|
D-----8-----8-----8-----8-----8---------10-------10-------10-------10-------10----|
A---------------------------------------------------------------------------------|
D---------------------------------------------------------------------------------|
 .................................................................................

e----------------------------------------------------------------------------------|
B-11-----11-----11-------11-------11--------10-----10-----10-----10-----10---------|
G---12-----12-----12-------12-------12--12----11-----11-----11-----11-----11--11---|
D-----13-----13-----13-------13-------13--------12-----12-----12-----12-----12-----|
A----------------------------------------------------------------------------------|
D----------------------------------------------------------------------------------|
 ................................................................................

Note: From the recording, you can hear Travis come in on the second time through the 
      above riff; however, his part is so low and muted in the recording that it 
      cannot really be heard clearly.

1st Chorus:

Claudio Chorus Chords: x 2
e------------------------------------------------------------------|
B------------------------------------------------------------------|
G------------------------------------------------------------------|
D-8-8-8-8-8-8-8-8-8-8-8-8-8-8-8-8-8-8-8-8-8-8-8-8-8-8-8-8-8-8-8-8--|
A-6-6-6-6-6-6-6-6-6-6-6-6-6-6-6-6-6-6-6-6-6-6-6-6-6-6-6-6-6-6-6-6--|
D------------------------------------------------------------------|

e------------------------------------------------------------------|
B------------------------------------------------------------------|
G------------------------------------------------------------------|
D-7-7-7-7-7-7-7-7-7-7-7-7-7-7-7-7-5-5-5-5-5-5-5-5-5-5-5-5-5-5-5-5--|
A-5-5-5-5-5-5-5-5-5-5-5-5-5-5-5-5-3-3-3-3-3-3-3-3-3-3-3-3-3-3-3-3--|
D-5-5-5-5-5-5-5-5-5-5-5-5-5-5-5-5-3-3-3-3-3-3-3-3-3-3-3-3-3-3-3-3--|

Travis Chorus Lead: x 2

3 times:
e-------------------------------------|
B-------------------------------------|
G-----10-----8-----10-----8-----8-----|
D-7-8----7-8---7-8----7-8---7-8-------|
A-------------------------------------|
D-------------------------------------|
 .....................................

last time:
e-------------------------------------|
B-------------------------------------|
G-----8-----8-----10-----8-----8-7----|
D-7-8---7-8---7-8----7-8---7-8--------|
A-------------------------------------|
D-------------------------------------|
 .....................................

Note: On the last time through Travis' Chorus Lead, 
      do not palm mute the last two notes.

1st Post-Chorus:

Claudio Post-Chorus Chords: x 1
e-------------------------------------|
B-------------------------------------|
G-3~--x-x--x---2~--x-x--x---3~--x-x---|
D-1~--x-x--x---1~--x-x--x---1~--x-x---|
A-1~--x-x--x---1~--x-x--x---1~--x-x---|
D-1~--x-x--x---1~--x-x--x---1~--x-x---|

Travis Post-Chorus Lead: x 1
e-------------------------------------|
B-------------------------------------|
G-------------------------------------|
D-8/-----------7/-----------8/--------|
A-------------------------------------|
D-------------------------------------|

Note: There is a guitar slide at the end of this
      section, just before the solo starts.

Guitar Solo:

Claudio Verse Riff x 1

Travis Solo Notes: x 1
e---------------------------------------------------|
B---3-----------------------------------------------|
G-----3-5b7r5---------------------------------------|
D-5-----------5--5~--------------/8---7b8r7---------|
A--------------------------------------------8--8~--|
D---------------------------------------------------|

e---------------------------------------------------|
B--------------------------------8b10----8v--7v--8v-|
G-5--7--8b10---8----7---5---7-----------------------|
D---------------------------------------------------|
A---------------------------------------------------|
D---------------------------------------------------|

2nd Verse:

Claudio Verse Riff x 1

Note: Again, it is not clear if Travis' plays anything here;
      because the recording is not very clear.

Keys Part I: x 1
e---------8--10-----------|
B------11-----------------|
G-------------------------|
D-------------------------|
A-------------------------|
D-------------------------|

Note: The above is played over the first chord of Claudios
      Verse Riff.

Keys Part II: x 1
e-11-10-11-10-11-10-11-10-11-10-11-10-11-10-11-10-11---|
B------------------------------------------------------|
G------------------------------------------------------|
D------------------------------------------------------|
A------------------------------------------------------|
D------------------------------------------------------|

Note: The above is played over the last chord of Claudios
      Verse Riff.

2nd Chorus:

Claudio Chorus Chords x 2
Travis Chorus Lead x 2

2nd Post-Chorus:

Claudio Post-Chorus Chords x 1
Travis Post-Chorus Lead x 1

Bridge:

Claudio Bridge Chords: x 2
e----------------------------------------|
B----------------------------------------|
G----------------------------------------|
D----------------------------------------|
A-5~--------------7~--3~-----------------|
D-5~--------------7~--3~-----------------|

e----------------------------------------|
B----------------------------------------|
G----------------------------------------|
D-8~--------------5~--5~--------8~-------|
A-6~--------------3~--7~--------6~-------|
D----------------------------------------|

Travis Bridge Lead: x 8
e----------------------------------------|
B-3-----4-----4p3-6-------4-3------------|
G---3-----3---------3---3-----5-4--------|
D-----5-----5---------5------------------|
A----------------------------------------|
D----------------------------------------|
 ........................................

Build-Up:

Claudio Build-Up Notes: x 2
e------------------------------------------------------------------|
B-8-----8-----8-----8-----8-----8-8-----8-----8-----8-----8-----8--|
G---7-----7-----7-----7-----7-------7-----7-----7-----7-----7------|
D-----8-----8-----8-----8-----8-------8-----8-----8-----8-----8----|
A------------------------------------------------------------------|
D------------------------------------------------------------------|
 ..................................................................

Travis Build-Up Chords: x 1
e------------------------------------------------|
B------------------------------------------------|
G------------------------------------------------|
D------------------------------------------------|
A-5~---------------------------------------------|
D-5~---------------------------------------------|

Note: On the first time through, Travis does not play anything;
      on the second time through, he strikes and holds the above chord.

Keys Build-Up Lead: x 1
e--------------------------------|
B--------------------------------|
G-------------7------------------|
D-5---7---8-------8---7-5----3---|
A--------------------------------|
D--------------------------------|

e-------------------------------------|
B-------------------------------------|
G-------------10----------------------|
D-8---10---12-------8---7-7h8---7p5-5-|
A-------------------------------------|
D-------------------------------------|

3rd Chorus:

Claudio Chorus Chords x 2
Travis Chorus Lead x 2

4th Chorus:

Claudio Chorus Chords x 2
Travis Chorus Lead x 2

Outro I:

Claudio: x 1
e------------------------------------------------|
B------------------------------------------------|
G------------------------------------------------|
D-8~---------------------------------------------|
A-8~---------------------------------------------|
D-6~---------------------------------------------|

Travis: x 1
e------------------------------------------------|
B------------------------------------------------|
G------------------------------------------------|
D-8/---------------------------------------------|
A------------------------------------------------|
D------------------------------------------------|

Outro II:

Both Guitars:
e------------------------------------------------|
B------------------------------------------------|
G-7~---------------------------------------------|
D--7~--------------------------------------------|
A---5~-------------------------------------------|
D----5~------------------------------------------|
comments
We did not receive enough feedback on this tab! Please rate:
print report bad tab
1 2 3 4 5
I want to post or [tab]
guest
You may want to rate the tab now too:
select rating
Please do not post tabs as comments. Select "correction" instead!