Oops, an error
Loading. Please wait.

Deranged Tab

version 3
version 3

Whole song

Interactive

477 views 1 this week
no commentswrite comment
1 2 3 4 5
please rate
add to favorites
launch autoscroll
font size
0
reset
how to read this tab
guitar tuner
Autoscroll
slow
fast
+/-
esc
set tempo
stop
Help us to improve Ultimate-Guitar.com Take our survey!
×
Author
Difficulty
novice
Amazing new song off of the Batman: Arkham City OST

Standard Tuning

Intro (all notes palm-muted):

listen for timing

---------------------------------------------------------------------------------------|
-8---8---8---8---8---8---10---10---10--10---10---10----11---11---11--11---11---11------|
--7---7---7---7---7---7----7----7----7----7----7----7----12---12---12--12---12---12----|
---8---8-------8---8--------8----8---------8----8----------13---13-------13---13-------|
---------------------------------------------------------------------------------------|
---------------------------------------------------------------------------------------|


----------------------------------------------------|
-10---10-----10---10----10------10------------------|
---11----11----11----11----11-----11----------------|               Repeat until chorus
-----12----12----------12----12---------------------|
----------------------------------------------------|
----------------------------------------------------|

Chorus:

---------------------------------------------|
---------------------------------------------|
88888888--88888888---------------------------|     Repeat Until End of Chorus
88888888--88888888--55555555--33333333-------|
66666666--66666666--55555555--33333333-------|
---------------------33333333--11111111------|

At the end of the chorus, claudio plays the following:

---------------------------------------------|
---------------------------------------------|
-8-XX--X----XX-X----XX-X----XX-X-------------|
-8-XX--X-/8-XX-X-/7-XX-X----XX-X-------------|
-6-XX--X----XX-X----XX-X-/5-XX-X-------------|
---------------------------------------------|

Solo:

---------------------------------------------------------------------------------------|
---------------------------------------------------------------------------------------|
---------------------------------------------------------------------------12-12^(14)--|
10^(12)-(10)--------8-7^(8)-(7)--------10-12-13^(15)-(13)---12-10-12^(13)-(12)---------|
-------------10-10------------8-8------------------------------------------------------|
---------------------------------------------------------------------------------------|

-------------|
-------------|
-12-11-12~---|
-------------|
-------------|
-------------|
Suggest correction
Give kudos to tab author, rate the tab!
1 2 3 4 5
comments
print report bad tab
guest
You may want to rate the tab now too:
select rating
Please do not post tabs as comments. Select "correction" instead!