Oops, an error
Loading. Please wait.

Devil In Jersey City Tab

version 5
version 5

Interactive

10,203 views 1 this week
no commentswrite comment
1 2 3 4 5
accurate
x 4
add to favorites
launch autoscroll
font size
0
reset
how to read this tab
guitar tuner
Autoscroll
slow
fast
+/-
esc
set tempo
stop
Help us to improve Ultimate-Guitar.com Take our survey!
×
Contributor
Difficulty
avengej 119
intermediate
This is my first tab, but im sure its 99.99%
 percent correct

Verse
gt1
e|---------------------------------------------------|
B|---------------------------------------------------|
G|---------------------------------------------------|
D|9-99999999-----------------------5-555555555555555-|
A|9-99999999---12-12121212121212---5-555555555555555-|
E|7-77777777---10-10101010101010---3-333333333333333-|
pm  ........      . . . . . . .      ...............

gt2
e|------------------------------|
B|------------------------------|
G|------------------------------|
D|------------------------------|
A|9-9999999---12-12121212121212-|
E|7-7777777---10-10101010101010-|
pm  .......      . . . . . . .

e|12-10--14-10--12-10--15-10--17-10--10-12-10---14-10--12-10--15-10--17-10|
B|-----10-----10-----10-----10-----10--------10------10-----10-----10-----|
G|------------------------------------------------------------------------|
D|------------------------------------------------------------------------|
A|------------------------------------------------------------------------|
E|------------------------------------------------------------------------|

Repeat 2x

e|------------------------------1414-1414-1414-1414-1212-1212-1414-1414-|
B|------------------------------1010-1010-1010-1010-1010-1010-1010-1010-|
G|------------------------------x-x--x-x--x-x--x-x--x-x--x-x--x-x--x-x--|
D|------------------------------1212-1212-1212-1212-1212-1212-1212-1212-|
A|9-9999999---12-12121212121212-----------------------------------------|
E|7-7777777---10-10101010101010-----------------------------------------|

Repeat 2x

Chorus
gt1 and 2
e|----------------------------------------|
B|----------------------------------------|
G|----------------------------------------|
D|----------------------------------------|
A|7-99-7/99-7/99-7/99-7-99-7/99-7/99-7/99-|
E|5-77-5/77-5/77-5/77-5-77-5/77-5/77-5/77-|

gt1
e|-------------------------------------------------------|
B|-------------------------------------------------------|
G|-------------------------------------------------------|
D|--0-7-5-4-------0-7-5-4-------0-7-5-4-------0-7-5-4----|
A|5---------7-5-5---------7-5-5---------7-5-5---------7-5|
E|3-------------3-------------3-------------3------------|


gt1 
e|--------------------|
B|--------------------|
G|--------------------|
D|--------------------|
A|77777777-0-55555555-|
E|55555555-0-33333333-|
pm........ . ........

gt1
e|-----------------------------------------|
B|-----------------------------------------|
G|-----------------------------------------|
D|-----------------------------------------|
A|99-99-99-99-77-77-77-77-5555555555555555-|
E|77-77-77-77-55-55-55-55-3333333333333333-|

gt2
e|---------------------------------------------------------|
B|---------------------------------------------------------|
G|----------7-7-----------6-6-----------7-7-----------6-6/-|
D|0h7p5p4p0-7-7-0h7p5p4p0-7-7-0h7p5p4p0-7-7-0h7p5p4p0-7-7--|
A|---------------------------------------------------------|
E|---------------------------------------------------------|

gt1 and 2
e|-----------------|
B|-----------------|
G|-----------------|
D|-----------------|
A|5555555555555555-|
E|3333333333333333-|

Repeat

Then Repeat Everything


Breakdown
gt2 (clean)
e|---------------------5-------5---|
B|---55555555-----3333---3---3---3-|
G|---66666666-----4444-----4-------|
D|---77777777-7/5-5555-------------| x6
A|0~-------------------------------|
E|---------------------------------|

gt1 (clean)
e|-----------------------------------------------------------------------|
B|-------------------------------------------------------------------7---|
G|---------------------------------------------------------6h7-6h7-9---7-|
D|0-7-5-4-0-2h4-0-0-00-2/777777777777\222222222/7777p0-0-0---------------| 
A|-----------------------------------------------------------------------|
E|-----------------------------------------------------------------------|x2

e|------------|
B|------------|
G|------------|
D|------------|
A|5~~~---5~~~-|
E|7~~~---3~~~-|

Outro
gt1
e|--------------------------------------------------------------------------
B|--------------------------------------------------------------------------
G|-------------19-19--------------18-18------------19-19--------------1818/-
D|0h19p17p16p0-------0h19p17p16p0-------0h19p17p16-------0h19p17p16p0-------
A|--------------------------------------------------------------------------
E|--------------------------------------------------------------------------

cont
e|-----------------|
B|-----------------|
G|-----------------|
D|-----------------| x4
A|5555555555555555-|
E|3333333333333333-|




comments
print report bad tab
I want to post or [tab]
guest
You may want to rate the tab now too:
select rating
Please do not post tabs as comments. Select "correction" instead!