Oops, an error
Loading. Please wait.

Everything Evil Tab

version 1
version 1
15,250 views 6 this week
4 commentsread comments
1 2 3 4 5
x 9
add to favorites
launch autoscroll
font size
0
reset
how to read this tab
guitar tuner
Autoscroll
slow
fast
+/-
esc
set tempo
stop
Help us to improve Ultimate-Guitar.com Take our survey!
×
-------------------------------------------------------------------------------
               EVERYTHING EVIL - Coheed and Cambria
--------------------------------------------------------------------------------

By:  (albert littleman907@aol.com)
... - palm mute
*   - pinch harmonic
/ \ - slide
9x
7x  - mute after strumming
~   - let ring out


GUITAR 1'S PARTS:
-----------------
Verse:  "Wait for everything evil..."
e|---------------------------------------------------------------------------|
B|---------------------------------------------------------------------------|
G|---------------------------------------------------------------------------|
D|-4-4--4-4--4--2-2--4--2--0--2---0--5-5--5-5--4-5-7-4-5-7-------------------|
A|-2-2--2-2---------------------4----2-2--2-2--------------5-5--5-5-----5-5--|
E|---------------------------------------------------------3-3--3-3--3-------|
  ...........................................................................

Verse Cont'd:                                  (3x)
e|-------------------------------------------|-9-9--9-9x----10-10--10-10\----|
B|-------------------------------------------|-7-7--7-7x-----7--7---7--7\----|
G|-------------------------------------------|-------------------------------|
D|-------------------------------------------|-------------------------------|
A|-4-5-7-5-4-0-5-5--5-5-----5-5--4-5-7-5-4-0-|-------------------------------|
E|-------------3-3--3-3--3-------------------|-------------------------------|

Verse Cont'd:               (2x)                                  (1x)
e|-5-5--5-5x----5-5--5-5x-|-------------------------------------|------------|
B|-x-x--x-x-----x-x--x-x--|-10-10-10-12-10-10-------------------|------------|
G|-4-4--4-4x----4-4--4-4x-|-------------------------------------|-12-12-12-12|
D|------------------------|-------------------12-12-12-11-11-11-|------------|
A|------------------------|-------------------------------------|------------|
E|------------------------|-------------------------------------|------------|

Verse Cont'd:                                                  (1x)
e|------------------------------------------------------------|--------------|
B|------------------------------------------------------------|--------------|
G|12-12-12-12-12-12-12-12-12-12-12-12-12-12-12-12-12-12-12-12-|-12-12--12-12x|
D|------------------------------------------------------------|--x--x---x--x-|
A|------------------------------------------------------------|-10-10--10-10x|
E|------------------------------------------------------------|--------------|


Chorus:  "I felt much better than..."  (4x)          (1x)
e|-------------------------------------------------|-------------------------|
B|-------------------------------------------------|----6-6--6-6--6-6--6-6---|
G|-------------------------------------------------|----5-5--5-5--5-5--5-5---|
D|-5-5--5-5--5-5--5-5--5-4-2-2-2--2--2-2--2--2-4-5-|----5-5--5-5--5-5--5-5---|
A|-5-5--5-5--5-5--5-5--5-4-2-2-2--2--2-2--2--2-4-5-|12\-3-3--3-3--3-3--3-3---|
E|-3-3--3-3--3-3--3-3--3-2-0-0-0--0--0-0--0--0-2-3-|-------------------------|

Chorus Cont'd:
e|---------------------------------------------------------------------------|
B|6-6--6-5--5-5--5-5--5-5\---------------------------------------------------|
G|5-5--5-5--5-5--5-5--5-5\---------------------------------------------------|
D|5-5--5-5--5-5--5-5--5-5\---------------------------------------------------|
A|3-3--3-3--3-3--3-3--3-3\---------------------------------------------------|
E|---------------------------------------------------------------------------|

Repeat Verse:  (You can figure out what parts to repeat)

Repeat Chorus

Bridge:
e|-------0-------------------------------------------------------------------|
B|---------1~----------------------------------------------------------------|
G|---0-----------------------------------------------------------------------|
D|-3---3---------------------------------------------------------------------|
A|---------------------------------------------------------------------------|
E|---------------------------------------------------------------------------|

Next Part:  (4x)
e|---------------------------------------------------------------------------|
B|---------------------------------------------------------------------------|
G|---------------------------------------------------------------------------|
D|-6-6--6-7-7-6-6--6-6--6-6--6-6--9-9--9-9-----------------------------------|
A|-4-4--4-4-4-4-4--4-4--7-7--7-7--7-7--6-6----7-6-*-*-*--9-9--9-9-9/11-7-7---|
E|------------------------------------------7-----7-9-7--7-7--7-7-7/-9-5-5---|

Next Part Cont'd:                      (Play at end of this part)
e|-----------------------------------|---------------------------------------|
B|-----------------------------------|---------------------------------------|
G|-----------------------------------|---------------------------------------|
D|-----------------------------------|---------------------------------------|
A|-7-7--7-7--7-7--7-7--7-7--7-7--7-7-|--2~-----------------------------------|
E|-5-5--4-5--5-5--5-5--5-5--5-5--5-5-|--0~-----------------------------------|

Part After That:  (2x)
e|---------------------------------------------------------------------------|
B|---------------------------------------------------------------------------|
G|---------------------------------------------------------------------------|
D|--------------------------------4-4-4-4-4-4-4-4-4-4-4-4-4-4-4-4------------|
A|2-2-2-2-2-2-2-2-2-2-2-2-2-2-2-2-2-2-2-2-2-2-2-2-2-2-2-2-2-2-2-2-6-6-6-6-6-6|
E|0-0-0-0-0-0-0-0-0-0-0-0-0-0-0-0---------------------------------4-4-4-4-4-4|
  ...........................................................................

Part After That Cont'd:
e|---------------------------------------------------------------------------|
B|---------------------------------------------------------------------------|
G|---------------------------------------------------------------------------|
D|---------------------------------------------------------------------------|
A|6-6-6-6-6-6-6-6-6-6-7-7-7-7-7-7-7-7-7-7-7-7-7-7-7-7------------------------|
E|4-4-4-4-4-4-4-4-4-4-5-5-5-5-5-5-5-5-5-5-5-5-5-5-5-5------------------------|
  ...................................................

Outro:  "Would you run..."  (6x)
e|---------------------------------------------------------------------------|
B|---------------------------------------------------------------------------|
G|--------------------------------6-6-6-6-6-6-6-6-6-6-6-6-6/8-4-4-4-4-4-4-4-4|
D|2-2-2-2-2-2-2-2-2-2-2-2-2-2-2-2-6-6-6-6-6-6-6-6-6-6-6-6-6/8-4-4-4-4-4-4-4-4|
A|2-2-2-2-2-2-2-2-2-2-2-2-2-2-2-2-4-4-4-4-4-4-4-4-4-4-4-4-4/6-2-2-2-2-2-2-2-2|
E|0-0-0-0-0-0-0-0-0-0-0-0-0-0-0-0--------------------------------------------|
  ...............................

Outro Cont'd:
e|------------------------------------------------|--------------------------|
B|------------------------------------------------|--------------------------|
G|4-4-4-4-4-4-4-4-2-2-2-2-2-2-2-2-2-2-2-2-2-2-2-2-|--------------------------|
D|4-4-4-4-4-4-4-4-2-2-2-2-2-2-2-2-2-2-2-2-2-2-2-2-|---2~---------------------|
A|2-2-2-2-2-2-2-2-0-0-0-0-0-0-0-0-0-0-0-0-0-0-0-0-|---2~---------------------|
E|------------------------------------------------|---0~---------------------|

GUITAR 2'S PARTS:
-----------------
Verse:  "Wait for everything evil..."  (10x, listen for when you stop palm muting)
e|---------------------------------------------------------------------------|
B|---------------------------------------------------------------------------|
G|---------------------------------------------------------------------------|
D|-4-4--4-4--4--2-2--4--2--0--2---0--5-5--5-5--4-5-7-4-5-7-------------------|
A|-2-2--2-2---------------------4----2-2--2-2--------------5-5--5-5-----5-5--|
E|---------------------------------------------------------3-3--3-3--3-------|
  ...........................................................................

Verse Cont'd:
e|-------------------------------------------|
B|-------------------------------------------|
G|-------------------------------------------|
D|-------------------------------------------|
A|-4-5-7-5-4-0-5-5--5-5-----5-5--4-5-7-5-4-0-|
E|-------------3-3--3-3--3-------------------|

Chorus:  "I felt much better than..."  (3x)
e|---------------------------------------------------------------------------|
B|-----7-----7-----7-----7---------------------------------------------------|
G|-4-4---4-4---4-4---4-4-----------------------------------------------------|
D|---------------------------------------------------------------------------|
A|---------------------------------------------------------------------------|
E|---------------------------------------------------------------------------|

Chorus Cont'd:  (2x)                                 (1x)
e|-------------------------------------------------|-------------------------|
B|-------------------------------------------------|----6-6--6-6--6-6--6-6---|
G|-------------------------------------------------|----5-5--5-5--5-5--5-5---|
D|-5-5--5-5--5-5--5-5--5-4-2-2-2--2--2-2--2--2-4-5-|----5-5--5-5--5-5--5-5---|
A|-5-5--5-5--5-5--5-5--5-4-2-2-2--2--2-2--2--2-4-5-|12\-3-3--3-3--3-3--3-3---|
E|-3-3--3-3--3-3--3-3--3-2-0-0-0--0--0-0--0--0-2-3-|-------------------------|

Chorus Cont'd:
e|---------------------------------------------------------------------------|
B|6-6--6-5--5-5--5-5--5-5\---------------------------------------------------|
G|5-5--5-5--5-5--5-5--5-5\---------------------------------------------------|
D|5-5--5-5--5-5--5-5--5-5\---------------------------------------------------|
A|3-3--3-3--3-3--3-3--3-3\---------------------------------------------------|
E|---------------------------------------------------------------------------|

Repeat Verse

Repeat Chorus

Next Part:  (1x)
e|---------------------------------------------------------------------------|
B|---------------------------------------------------------------------------|
G|---------------------------------------------------------------------------|
D|-6-6--6-7-7-6-6--6-6--6-6--6-6--9-9--9-9-----------------------------------|
A|-4-4--4-4-4-4-4--4-4--7-7--7-7--7-7--6-6----7-6-*-*-*--9-9--9-9-9/11-7-7---|
E|------------------------------------------7-----7-9-7--7-7--7-7-7/-9-5-5---|

Next Part Cont'd:
e|-----------------------------------|
B|-----------------------------------|
G|-----------------------------------|
D|-----------------------------------|
A|-7-7--7-7--7-7--7-7--7-7--7-7--7-7-|
E|-5-5--4-5--5-5--5-5--5-5--5-5--5-5-|

Next Part Cont'd:  (3x)
e|----12-------12-------16-------16-------19-------19-------16-------14------|
B|/12----12-12----12/17----17-17----17-17----17-17----17-17----17-17----17-17|
G|---------------------------------------------------------------------------|
D|---------------------------------------------------------------------------|
A|---------------------------------------------------------------------------|
E|---------------------------------------------------------------------------|

Next Part Cont'd:
e|-14-------14---------------------------------------------------------------|
B|----17-17----17----9-----9---9---------------------------------------------|
G|-----------------9---9-9---9---9-9-9---------------------------------------|
D|---------------------------------------------------------------------------|
A|---------------------------------------------------------------------------|
E|---------------------------------------------------------------------------|

Part After That:  (2x)
e|---------------------------------------------------------------------------|
B|---------------------------------------------------------------------------|
G|---------------------------------------------------------------------------|
D|9-9-9-9-9-9-9-9-9-9-9-9-9-9-9-9-9-9-9-9-9-9-9-9-9-9-9-9-9-9----------------|
A|7-7-7-7-7-7-7-7-7-7-7-7-7-7-7-7-7-7-7-7-7-7-7-7-7-7-7-7-7-7-6-6-6-6-6-6-6-6|
E|------------------------------------------------------------4-4-4-4-4-4-4-4|

Part After That Cont'd:
e|---------------------------------------------------------------------------|
B|---------------------------------------------------------------------------|
G|---------------------------------------------------------------------------|
D|---------------------------------------------------------------------------|
A|6-6-6-6-6-6-6-6-7-7-7-7-7-7-7-7-7-7-7-7-7-7-7-7----------------------------|
E|4-4-4-4-4-4-4-4-5-5-5-5-5-5-5-5-5-5-5-5-5-5-5-5----------------------------|

Outro:  (6x)
e|---------------------------------------------------------------------------|
B|---------------------------------------------------------------------------|
G|-9-9-9-9\4-4-4-4-12-12-12-11-11-12-17-17-17-17-17-17-17-17-17-17-17-17-17--|
D|-x-x-x-x-x-x-x-x--x--x--x--x--x--x--x--x--x--x--x--x--x--x--x--x--x--x--x--|
A|-7-7-7-7\2-2-2-2-10-10-10--9--9-10-14-14-14-14-14-14-14-14-14-14-14-14-14--|
E|---------------------------------------------------------------------------|
Suggest correction
comments
print report bad tab
4 comments total. Showing first comments.
0 reply
Underrated 190 Nov 01, 2005 01:29 AM

This tab is not accurate at all.

0 reply
Horace 10 Nov 24, 2005 09:02 AM

The verse riff is WAY off, as is the outro (my goodness!). It sounds nothign like the actual song.

0 reply
smitty_bang 10 Feb 19, 2007 06:30 AM

even though you ppl think he got it wrong i still think he did a good job on the intro

guest
You may want to rate the tab now too:
select rating
Wanna post a correction for this tab? Suggest correction