Oops, an error
Loading. Please wait.

Everything Evil Tab

version 2
version 2
11,888 views 1 this week
no commentswrite comment
1 2 3 4 5
worth learning
x 12
add to favorites
launch autoscroll
font size
0
reset
how to read this tab
guitar tuner
Tab Pro tools
  • play this tab
  • loop segment
  • change instrument
  • show fretboard
  • metronome
×
Best way to learn
"Everything Evil"
Autoscroll
slow
fast
+/-
esc
set tempo
stop
Contributor
-------------------------------------------------------------------------------
                  EVERYTHING EVIL - Coheed and Cambria
-------------------------------------------------------------------------------

Tabbed by: joecool71
Email: mattconnellan@yahoo.com, mconne@lincoln.navy.mil

Tuning: Standard

Here's the third song in my new series, and it's a fun one. The verse riff is so fast
and cool sounding... Enjoy!

Verse
e|-------------------------------------------------------------------------|
B|-------------------------------------------------------------------------|
G|------------------------------------0-2---0------------------------------|
D|-4-4--4-4----0240-2---0-4-4--4-4--4-----4---0----------------02-0--------|
A|-2-2—-2-2-024-------4---2-2--2-2---------------5-5--5-5----02-----4-0-X2-|
E|-----------------------------------------------3-3--3-3-003--------------|
   . .  . . ....... . . . . .  . .  . . . . . .  . .  . . ....... . . .
Verse lead 1
e|-10-10--10-10---14-14--14-14---7-7--7-7---7-7--7-7-|
B|-12-12--12-12---15-15--15-15---8-8--8-8---8-8--8-8-|
G|-11-11--11-11---16-16--16-16---9-9--9-9---9-9--9-9-|
D|---------------------------------------------------|
A|---------------------------------------------------|
E|---------------------------------------------------|

Verse lead 2 (don't palm mute verse while playing this lead)
e|-------------------------------------------------------------------|
B|-10-10-10-12-10-10-------------------------------------------------|
G|-------------------------------------------------------------------|
D|-------------------12-12-12-11-11-11-------------------------------|
A|-------------------------------------10-10-10-10-10-10-9-9-9-9-9-9-|
E|-------------------------------------------------------------------|

Chorus (chords)
e|---------------|
B|---------------|
G|---------------|
D|-5---4-2---4-5-|
A|-5---4-2---4-5-|
E|-3---2-0---2-3-|

Chorus lead
e|-----------------------------|
B|-----------------------------|
G|-----11-----11-----11-----11-|
D|-9-9----9-9----9-9----9-9----|
A|-----------------------------|
E|-----------------------------|

Fill
e|------------------------------------------|
B|-6-6--6-6--6-6--6-6--6-6--6-5--5-5--5-5-5-|
G|-5-5--5-5--5-5--5-5--5-5--5-5--5-5--5-5-5-|
D|-5-5--5-5--5-5--5-5--5-5--5-5--5-5—-5-5-5-|
A|-3-3--3-3--3-3--3-3—-3-3--3-3--3-3--3-3-3-|
E|------------------------------------------|

Phase II
e|----------------------------------------------------------------------|
B|----------------------------------------------------------------------|
G|----------------------------------------------------------------------|
D|-66-66766-66-------99-99----------------------------------------------|
A|-44-44444-44-99-99-77-77-----9-------99-99/11-77-77-77-77-77-77-77-77-|
E|-------------77-77-------7-9---7-9-7-77-77/9--55-55-45-55-45-55-45-55-|

Phase II lead
e|-------------------------------------------16-------19-------16----------------------------------|
B|----17-------17----------------------17-17----17-17----17-17----17-17-19-17-17-19----16----16----|
G|-16----16-16----16----16-------16-------------------------------------------------18----18----18-|
D|-------------------18----18-18----18-------------------------------------------------------------|
A|-------------------------------------------------------------------------------------------------|
E|-------------------------------------------------------------------------------------------------|

Phase III (chords)
e|---------------|
B|---------------|
G|---------------|
D|-2---9---7---7-|
A|-2---9---7---7-|
E|-0---7---5---7-|
   .   .   .
Phase III lead (don't palm mute Phase III chords while playing this riff)
e|-12------------------12---------------|
B|-x--12-10-9--10-12---x----10-12--9-10-|
G|-9--x--x--x--x--x----9----x--x---x-x--|
D|----9--7--6--7--9---------7--9---6-7--|
A|--------------------------------------|
E|--------------------------------------|

LYRICS AND RIFF PLACEMENT

[VERSE]
Wait for... everything evil in you comes out
[VERSE W/ LEAD 1] X3
I'll stay when we'll only motivate sound instead sergeant
Make for the table in hopes that I won't be afraid again
Call when enabled and send the leader out against
[VERSE W/ LEAD 2] X2
I will stage a reenactment in a false pretense exist inflict
Unworthy unconsciousness why debate when the actions suppressed
Then kill the acquitted
[VERSE W/ LEAD 1] X2
Listen to the sounds that remain in question in hopes to solidify a truce
Amongst the children and the jury that stands the verdict
Alive here among the dead
[VERSE W/ LEAD 2] X2
Evil monster show me the things that I've never wanted done
Evil monster do to me the things I never wanted done
[CHORUS W/ LEAD] X4
I felt much better than this before
If they find out to avoid then the accidents kept hidden away
But if they stay...
[FILL]
[VERSE] 
Blood hungry cannibalistic unfit family ties
[VERSE W/ LEAD 1] 
In a series of knocks to the young girl's head side
[VERSE W/ LEAD 2] X2
Come write me a letter and post it on my refrigerator door
Inspected inspector I think we've found something over here
[CHORUS W/ LEAD] X4
I felt much better than this before
If they find out to avoid then the accidents kept hidden away
But if they stay...
[FILL]
[PHASE II]
[PHASE II W/ LEAD] X3
Jesse come look at what your brother did here he did away with me
[PHASE III] X2
Stay until Wednesday and write me a childlike letter pretending
At war here in Thursday let's make this our last day at home by the fence
[PHASE III W/ LEAD] UNTIL FADEOUT
Would you run? Would you run? Would you run down past the fence?
And she screamed Claudio dear Claudio
I wish goddammit, we'll make it if you believe...

| /  slide up
| \  slide down
| h  hammer-on
| p  pull-off
| ~  vibrato
| +  harmonic
| x  Mute note
===============================================================================
comments
print report bad tab
I want to post or [tab]
guest
You may want to rate the tab now too:
select rating
Please do not post tabs as comments. Select "correction" instead!