Oops, an error
Loading. Please wait.

Everything Evil Tab

version 5
version 5
2,411 views 1 this week
no commentswrite comment
1 2 3 4 5
please rate
add to favorites
launch autoscroll
font size
0
reset
how to read this tab
guitar tuner
Autoscroll
slow
fast
+/-
esc
set tempo
stop
Help us to improve Ultimate-Guitar.com Take our survey!
×
Author
Part 1

   Guitar 1 (PM)
e|-------------------------|-------------------------|
B|-------------------------|-------------------------|
G|-------------------------|-------------------------|
D|-4-4---4-4-----224-0-2---|-5-5---5-5---4-5-7-4-5---|
A|-2-2---2-2---2---------4-|-2-2---2-2-------------5-|
E|-------------------------|-------------------------|

e|-------------------------|-------------------------|
B|-------------------------|-------------------------|
G|-------------------------|-------------------------|
D|-------------------------|-------------------------|
A|-5-5---5-5---45457-5-4---|-5-5---5-5---45457-5-4---|
E|-3-3---3-3-------------5-|-3-3---3-3-------------5-|

------------------------------------------------------

   Guitar 1 (PM) x3
e|-------------------------|-------------------------|
B|-------------------------|-------------------------|
G|-------------------------|-------------------------|
D|-4-4---4-4-----224-0-2---|-5-5---5-5---4-5-7-4-5---|
A|-2-2---2-2---2---------4-|-2-2---2-2-------------5-|
E|-------------------------|-------------------------|

e|-------------------------|-------------------------|
B|-------------------------|-------------------------|
G|-------------------------|-------------------------|
D|-------------------------|-------------------------|   
A|-5-5---5-5---45457-5-4---|-5-5---5-5---45457-5-4---|
E|-3-3---3-3-------------5-|-3-3---3-3-------------5-|

   Guitar 2 x3
e|-9-9---9-9---------------|-10-10---10-10-------------|
B|-7-7---7-7---------------|-7--7----7--7--------------|
G|-------------------------|---------------------------|
D|-------------------------|---------------------------|
A|-------------------------|---------------------------|
E|-------------------------|---------------------------|

e|-5-5---5-5--------------|-5-5---5-5--------------|
B|-x-x---x-x--------------|-x-x---x-x--------------|
G|-4-4---4-4--------------|-4-4---4-4--------------|
D|------------------------|------------------------|  
A|------------------------|------------------------|
E|------------------------|------------------------|

---------------------------------------------------------

Do this on the last compass the third time:

   Guitar 1 (not PM)
e|-------------------------|   |-------------------------|
B|-------------------------|   |-------------------------|
G|-------------------------|   |-12-12---12-12-----------|
D|-------------------------|   |-x--x----x--x------------|
A|-5-5---5-5---------------|   |-10-10---10-10-----------|
E|-3-3---3-3---------------|   |-------------------------|

Part 2

   Guitar 1 (Play part 1 without palm mute) x4

   Guitar 2 x2
e|-------------------------------------|
B|-10-10-10-12-10-10-------------------|
G|-------------------------------------|
D|-------------------12-12-12-11-11-11-|
A|-------------------------------------|
E|-------------------------------------|

e|-------------------------------------|
B|-10-10-10-12-10-10-------------------|
G|-------------------------------------|
D|-------------------12-12-12-11-11-11-|
A|-------------------------------------|
E|-------------------------------------|

e|-------------------------------------|
B|-------------------------------------|
G|-12-12-12-11-11-11-12-12-12-11-11-11-|
D|-------------------------------------|
A|-------------------------------------|
E|-------------------------------------|

Do this on the last compass the second time:

   Guitar 1 (not PM)
e|-------------------------|   |-------------------------|
B|-------------------------|   |-------------------------|
G|-------------------------|   |-12-12---12-12-----------|
D|-------------------------|   |-x--x----x--x------------|
A|-5-5---5-5---------------|   |-10-10---10-10-----------|
E|-3-3---3-3---------------|   |-------------------------|

Play part 1 twice and then part 2 twice

Part 3

   Guitar 1
These are the chords, you should figure out the rhydm by yourself
e|-------------|
B|-------------|
G|-------------|
D|-5-x-4-x-2-x-|
A|-5-x-4-x-2-x-|
E|-3-x-2-x-0-x-|

   Guitar 2
e|-------|
B|-----7-|
G|-4-4---|
D|-------|
A|-------|
E|-------|

Part 4

e|-------------------------------------------------|
B|-------------6-6---6-6---6-5---5-5---5-5---------|
G|-5-5---5-5---5-5---5-5---5-5---5-5---5-5---------|
D|-5-5---5-5---5-5---5-5---5-5---5-5---5-5---------|
A|-3-3---3-3---3-3---3-3---3-3---3-3---3-3---------|
E|-------------------------------------------------|

Play guitar 1 part 1 twice and beggin guitar 2 at the second time

Play part 2, 3 and 4

Part 5

e|---------0---|
B|-----------1-|
G|-----0-------|
D|-3-3---3-----|
A|-------------|
E|-------------|

Part 6

   Guitar 1
e|--------------------------------|
B|--------------------------------|
G|--------------------------------|
D|--------------------------------|
A|-11-11---11-12-12-11-11---11-11-|
E|-9--9----9--9--9--9--9----9--9--|

e|----------------------------------------|
B|----------------------------------------|
G|----------------------------------------|
D|----------------------------------------|
A|-11-11---11-11-x-14-14---14---5-4-------|
E|-12-12---12-12-x-12-12---12-5-----5-7-5-|

e|------------------------------------------------|
B|------------------------------------------------|
G|------------------------------------------------|
D|-9-9---9-9-11-7-7---7-7---7-7---7-7---7-7---7-7-|
A|-9-9---9-9-11-7-7---7-7---7-7---7-7---7-7---7-7-|
E|-7-7---7-7-9--5-5---5-5---4-5---5-5---5-5---5-5-|

-------------------------------------------------------

   Guitar 1 x3
   Guitar 1
e|--------------------------------|
B|--------------------------------|
G|--------------------------------|
D|--------------------------------|
A|-11-11---11-12-12-11-11---11-11-|
E|-9--9----9--9--9--9--9----9--9--|

e|----------------------------------------|
B|----------------------------------------|
G|----------------------------------------|
D|----------------------------------------|
A|-11-11---11-11-x-14-14---14---5-4-------|
E|-12-12---12-12-x-12-12---12-5-----5-7-5-|

e|------------------------------------------------|
B|------------------------------------------------|
G|------------------------------------------------|
D|-9-9---9-9-11-7-7---7-7---7-7---7-7---7-7---7-7-|
A|-9-9---9-9-11-7-7---7-7---7-7---7-7---7-7---7-7-|
E|-7-7---7-7-9--5-5---5-5---4-5---5-5---5-5---5-5-|

   Guitar 2 x3
e|-----12-------12--------16-------16-------|
B|-/12----12-12----12-/17----17-17----17-17-|
G|------------------------------------------|
D|------------------------------------------|
A|------------------------------------------|
E|------------------------------------------|

e|-19-------16-------16-------14-------16-------|
B|----17-17----17-17----17-17----17-17----17-17-|
G|----------------------------------------------|
D|----------------------------------------------|
A|----------------------------------------------|
E|----------------------------------------------|

e|---------------------|
B|-9-------9-----------|
G|-----9-------9---9---|
D|---------------------|
A|---------------------|
E|---------------------|

Part 7 x4

   (Palm Mute) x2
e|-------------------------|
B|-------------------------|
G|-------4-x16-------------|
D|-2-x16-4-----6-x16-7-x16-|
A|-2-----2-----6-----7-----|
E|-0-----------4-----5-----|

e|--------------------------------|
B|--------------------------------|
G|--------------------------------|
D|-2-x16-11-x14-13---9-x16--7-x16-|
A|-2-----11-----13---9------7-----|
E|-0-----9------11---7------5-----|

Piano

e|------------------17-----------151312-|
B|-10------12-13-15---------------------|
G|------9-------------------------------|
D|-7---------10----------10---7---------|
A|------------------8-------------------|
E|--------------------------------------|

e|-12----------------12---13-------------|
B|--------------15-------------13---12---|
G|----------0------------------0---------|
D|------9-----------------9--------------|
A|-7-----------------7-------------------|
E|---------------------------------------|

e|------------------17-----------151312-|
B|-10------12-13-15---------------------|
G|------9-------------------------------|
D|-7---------10----------10---7---------|
A|------------------8-------------------|
E|--------------------------------------|

e|-12-----------13---13------------------|
B|-----------------------------13---12---|
G|----------0------------------0---------|
D|------9-----------------9--------------|
A|-7-----------------7-------------------|
E|---------------------------------------|
Suggest correction
Give kudos to tab author, rate the tab!
1 2 3 4 5
comments
print report bad tab
guest
You may want to rate the tab now too:
select rating
Please do not post tabs as comments. Select "correction" instead!