Oops, an error
Loading. Please wait.

Far Tab

version 2
version 2

Whole song

Interactive

1,492 views 1 this week
no commentswrite comment
1 2 3 4 5
please rate
add to favorites
launch autoscroll
font size
0
reset
how to read this tab
guitar tuner
Autoscroll
slow
fast
+/-
esc
set tempo
stop
Help us to improve Ultimate-Guitar.com Take our survey!
×
Author
Difficulty
novice
this tab is at least 90% good.  i may have left some notes out because a lot of notes
are left ringing in this song.  i'm writing this tab in standard tuning, but it's pretty
apparent that its performed 1/2 step down.

                   verse theme A - done 3x up to verse theme B.  note -> listen to the
song to know what to keep pressing down, and when to let up off the strings.  i put some
notes in parentheses because it might be picked there or might not... i play it as not 
being there, but it sounds cool both ways (imo).

-----9---8-|----6-----|------------------------------------|-----8-----------|
---9---9---|--9---9-8-|--6-------8-------9-------8-------6\|---9---9--9-11---|
10---------|8---------|6---(6)-6---(6)-6---(6)-6---(6)-6\--|-8-------8-------|
-----------|----------|------------------------------------|-----------------|
-----------|----------|------------------------------------|-----------------|
-----------|----------|------------------------------------|-----------------|


                   verse theme B 0:51 (please, this is what i can give) - repeated a few
times.  listen to the recording for the rhythm.

--------9-------------9-----------|---------9-------------9-------------------|
------8-------------8-------------|-------8-------------8---------------------|
---10------------10---------------|----10------------10-----------------------|
10--------10--10--------10--10--8-|-10--------10--10--------10-8-10-11--------|
----------------------------------|-------------------------------------------|
----------------------------------|-------------------------------------------|


                   verse theme A (1:23).  played 2x.

                   verse theme B (1:53).  done 4x.

                   bridge 1 (2:29).  done 2x.

13---11-------------------13----11--------|
---13----11---14p13b14b13----13----11-----|
--------------------------------------13--|
------------------------------------------|
------------------------------------------|
------------------------------------------|

                   bridge 2 (2:56).  done 2x.

16b18b16-15-----11-13-11-11------------------------13------------------------|
-------------13-------------14-14-13-13-11---13-16----16-13-16---------------|
---------------------------------------------------------------13-13---------|
-----------------------------------------------------------------------------|
-----------------------------------------------------------------------------|
-----------------------------------------------------------------------------|

------13------------------------|
13-16----16-13-16---------------|
------------------12-12---------|
--------------------------------|
--------------------------------|
--------------------------------|

                   verse theme B (3:29).  repeated until end.  note that verse theme B
continued throughout bridge 2, but it's tough to play both as a lone guitarist.

translation of symbols
----------------------
\ = slide down
b = bend.  if the preceding note is lower, this means bend up.  if
             it's higher, it means bend down.
p = pull off
Suggest correction
What's this?
You can suggest a correction to this tab. Community and Mods will review your correction and vote to approve or reject it.
comments
We did not receive enough feedback on this tab! Please rate:
print report bad tab
1 2 3 4 5
guest
You may want to rate the tab now too:
select rating
Please do not post tabs as comments. Select "correction" instead!