Oops, an error
Loading. Please wait.

Feathers Chords

version 1
version 1

Whole song

Interactive

494 views 12 this week
no commentswrite comment
1 2 3 4 5
2 more votes to show rating
add to favorites
launch autoscroll
font size
0
reset
transpose
0
reset
display chords
guitar tuner
×
Best way to learn
"Feathers"
Autoscroll
slow
fast
+/-
esc
set tempo
stop
Difficulty
intermediate
----------------------------------------------------------------------------
                             Feathers - Coheed & Cambria
----------------------------------------------------------------------------
Tabbed by:Ethan Stewmon
Email:valo_of_the_shadows161990@yahoo.com

Tuning: Standard

Pretty good song and rather easy, but I noticed there wasn't really a full tab for it so
goes...any comments please email me or send me an instant message...I'm on yahoo
more than the email part...oh and I'm going to put the solo on guitar 2...I'm not sure 
plays the solo on this...

Guitar 1=Claudio
Guitar 2=Travis


Guitar1
-------

Intro/verse                             first ending
e|-------------------------------------|-----------------------------------|
B|-------------------------------------|-----------------------------------|
G|------9------9------8------9----9---9|-----------------------------------|
D|------9------9------9------9----9---9|----9------9------9------9----9---9|
A|--7-7-7--7-7-7--7-7-7--7-7-7--7-7-7-7|----7------7------7------7----7---7|
E|-------------------------------------|5-5-5--5-5-5--5-5-5--5-5-5--5-5-5-5|
    . .    . .    . .    . .    .   .    . .    . .    . .    . .    .   .


Second Ending                            Buildup before chorus consists of
e|--------------------------------------|  the A chord being palm muted and
B|--------------------------------------|  released.
G|--------------------------------------|
D|----9------9--------------------------|
A|----7------7--------------------------|
E|5-5-5--5-5-5--5-5--7500-7500-7500-7500|
  . .    . .    . .  .... .... .... ....


Chorus
e|------------|
B|------------|
G|-------9----|
D|7------9---9|
A|7------7---9|
E|5----------7|

Bridge              solo
e|-----------------|-----------------------------|
B|-----------------|-----------------------------|
G|-----------------|-9-----7-----5-----4--2------|
D|-10---7----2----4|-9-----7-----5-----4--2--5--4|
A|-10---7----2----4|-7-----5-----3-----2--0--5--4|
E|-8----5----0----2|-------------------------3--2|


Interlude--let notes ring
e|------------------------------------------------------------0--------|
B|----0-----0-----0-----0-----0---------0-----0---------0-------0------|
G|------2-----2-----2-----2-----2---------2-----2---------2-------2----|
D|--------2-----2-----2-----2-----2---------2-----2---------2----------|
A|0--------------------------------------------------------------------|
E|-----------------------------------4---------------2-----------------|


Guitar2
-------

Verse                           first ending
e|----------------------------|------------5-----------|
B|---7----9----12----9---7---7|---5----7-------7---5--5|
G|99---99---99----99---9---9--|66---66---66--66---6--6-|
D|----------------------------|------------------------|
A|----------------------------|------------------------|
E|----------------------------|------------------------|

second ending
e|--------------5----------|
B|----5----7--------7------|
G|-66---66---66---66--6-989|
D|-------------------------|
A|-------------------------|
E|-------------------------|

I'm not going to post a tab for the leads in the chorus...just play around with what he
in the verses because it's basically the same thing.

Bridge
e|--------------------------------------------------------------------|
B|--------------------------------------------------------------------|
G|--0020040070040202--2--4--7--4-2-2------0--2--0----------0--2--0----|
D|------------------44-44-44-44-4-4----4----------4-4---4----------4-4|
A|-----------------------------------22-22-22-22-2-2--33-33-33-33-3-3-|
E|--------------------------------------------------------------------|

Solo
e|-------------------------------------------------------------------|
B|-------------10~------------------------15b17--17-15---------------|
G|-/9~---11-12------12-11-12~-12-11-9-11---------------16-14~---12-11|
D|-------------------------------------------------------------------|
A|-------------------------------------------------------------------|
E|-------------------------------------------------------------------|

                                                                     x2
e|---------------------------------------------------------------------|-|
B|-------------10~-------------------------/12~-/10~-------------------|-|
G|-/9~---11-12------12-11-12~-12-11-9-11-------------/12-12-12-11-11-11|9|
D|---------------------------------------------------------------------|-|
A|---------------------------------------------------------------------|-|
E|---------------------------------------------------------------------|-|


please comment...first tab I've done it maybe two years...


| b#  bend to note
| /  slide up
| \  slide down
| h  hammer-on
| p  pull-off
| ~  vibrato
| +  harmonic
| x  Mute note
============================================================================
Suggest correction
Give kudos to tab author, rate the tab!
1 2 3 4 5
comments
print report bad tab
guest
You may want to rate the tab now too:
select rating
Wanna post a correction for this tab? Suggest correction