Oops, an error
Loading. Please wait.

Feathers Tab

version 1
version 1

Solo

Interactive

15,079 views 6 this week
8 commentsread comments
1 2 3 4 5
x 9
add to favorites
launch autoscroll
font size
0
reset
how to read this tab
guitar tuner
×
Best way to learn
"Feathers"
Autoscroll
slow
fast
+/-
esc
set tempo
stop
Author
Difficulty
Tuning
  follow
novice
D A D G B E
Pretty sure it's 100% correct.
If not please tell.

e|-----------------------------------------------------------|
B|--------10--------------------15b-(17)-17p15p13p10-10------|
G|-9-11-12--12-11-12--12-11-9-11-----------------------12-9--|
D|-----------------------------------------------------------|
A|-----------------------------------------------------------|
D|-----------------------------------------------------------|

e|-----------------------------------------------------------|
B|--------10---------------------/12--/10--------------------|
G|-9-11-12--12-11-12--12-11-9-11----------/12--/11-----12-9--|
D|-----------------------------------------------------------|
A|-----------------------------------------------------------|
D|-----------------------------------------------------------|

e|-----------------------------------------------------------|
B|--------10--------------------15b-(17)-17p15p13p10-10------|
G|-9-11-12--12-11-12--12-11-9-11-----------------------12-9--|
D|-----------------------------------------------------------|
A|-----------------------------------------------------------|
D|-----------------------------------------------------------|

e|-----------------------------------------------------------|
B|--------10---------------------/12--/10--------------------|
G|-9-11-12--12-11-12--12-11-9-11----------/12-12-12-/11-11-11|
D|-----------------------------------------------------------|
A|-----------------------------------------------------------|
D|-----------------------------------------------------------|
Suggest correction
comments
print report bad tab
8 comments total. Showing first comments.
0 reply
rayjrvasquez 10 Nov 13, 2007 10:46 AM

sounds right but i would bend the slide notes like this

e|-------------------------------------------------------------|
B|--------10----------------------12----10----8-----7----------|
G|-9-11-12--12-11-12--12-11-9-11--14fb--12fb--10fb--9fb--12-9--|
D|-------------------------------------------------------------|
A|-------------------------------------------------------------|
D|-------------------------------------------------------------|


ya know?
5*

0 reply
j-boy199 140 Dec 01, 2007 12:41 PM

whys this tab in drop D and the others and in standard?

still its a good tab

0 reply
HandT 161 Jan 07, 2008 04:20 PM

pretty good I think you got it

guest
You may want to rate the tab now too:
select rating
Wanna post a correction for this tab? Suggest correction