Oops, an error
Loading. Please wait.

Feathers Tab

version 2
version 2

Interactive

8,865 views 1 this week
1 commentread comment
1 2 3 4 5
accurate
x 3
add to favorites
launch autoscroll
font size
0
reset
how to read this tab
guitar tuner
Autoscroll
slow
fast
+/-
esc
set tempo
stop
Help us to improve Ultimate-Guitar.com Take our survey!
×
Difficulty
intermediate
Listen to the song for the correct strumming patterns and muting

intro/verse
|-----------------------------------------------------|
|-----------------------------------------------------|
|------9-----8---9---8--9-8---------------------------|
|------9-----9---9---9--9-9------9-----9---9---9--9-9-|
|--7-7-7-7-7-7-7-7-7-7--7-7--0-0-0-0-0-0-0-0-0-0--0-0-|
|-----------------------------------------------------|

|-----------------------------------------------------|
|-----------------------------------------------------|
|------9-----8---9---8--9-8---------------------------|
|------9-----9---9---9--9-9---------------------------|
|--7-7-7-7-7-7-7-7-7-7--7-7---------0h7h9--------0h7h9|
|----------------------------0h7h10-------0h7h10------|

chorus
|-----------------|
|-----------------|
|-----------------|
|--------9--------|
|-7------7---9----|
|-5----------7----|x4

bridge 
|-----------------|
|-----------------|
|-----------------|
|-5---2-----------|
|-3---0---2---2---|
|---------0---4---|x2

sorry, still working on the solo/harmony and the break.

Outro (wait a minute...)
|-----------------|
|-----------------|
|-----------------|
|--------9--------|
|-7------7---9----|
|-5----------7----|x4

Suggest correction
Give kudos to tab author, rate the tab!
1 2 3 4 5
comments
print report bad tab
1 comment total.
0 reply
A7Xyo 46 wrote on November 27 2009, 09:53 pm

nice job. this is the only intro thats right

guest
You may want to rate the tab now too:
select rating
Please do not post tabs as comments. Select "correction" instead!