Oops, an error
Loading. Please wait.

Feathers Tab

version 3
version 3

Interactive

2,698 views 1 this week
no commentswrite comment
1 2 3 4 5
please rate
add to favorites
launch autoscroll
font size
0
reset
how to read this tab
guitar tuner
Autoscroll
slow
fast
+/-
esc
set tempo
stop
Help us to improve Ultimate-Guitar.com Take our survey!
×
Contributor
Gtr.1 (w/light delay)
P.M.----->---->---->
E|-----------------------------------------------------------------|
B|-----------------------------------------------------------------|
G|-----------------------------------------------------------------|
D|--9-9--9--9-9--6-6--4-4-4-4--------------------------------------|
A|--7-7--7--6-6--4-4--2-2-2-2---7-7--7--7--7--7-7-7----------------|
E|------------------------------5-5--5--5--5--5-5-5----------------|

Gtr. 1 repeats above riff

Gtr. 1 repeats above riff throughout verse while Gtr. 2 plays

Gtr. 2        Riff A ----------------------------------------------
E|-----------------------------------------------------------------|
B|-5p4h5p4h5v-5-0-0-7-0-0-10-0-0-7-5-4-5-2-2-5-0-0-7-0-0-10-0-0----|
G|-----------------------------------------------------------------|
D|-----------------------------------------------------------------|
A|-----------------------------------------------------------------|
E|-----------------------------------------------------------------|

Riff A cont'd.----------------------------------------------------------|
E|----------------------------------------------------------------------|
B|--7-4-2-5-7-0-0-9-0-0-12-0-0-9-7-4-5-2-2-5-0-0-7-0-0-10---------------|
G|-------------------------------------------------------5p4h5p4h5v-----|
D|----------------------------------------------------------------------|
A|----------------------------------------------------------------------|
E|----------------------------------------------------------------------|


Gtr.1 plays intro riff and Gtr.2 plays Riff A until chorus.

E|-----------------------------------------------------------------|
B|-----------------------------------------------------------------|
G|-----------------------------------------------------------------|
D|-------------------9-9-9-9---------------------------------------|
A|--7-7-7-7-7-7-7-7--7-7-7-7-9-9-9-9-9-9---------------------------|
E|--5-5-5-5-5-5-5-5----------7-7-7-7-7-7---------------------------|

Gtr. 1 plays chorus riff 4 times

Bridge
P.M.----->----->----->----->--|
E|-----------------------------------------------------------------|
B|-----------------------------------------------------------------|
G|-----------------------------------------------------------------|
D|-----------------------------------------------------------------|
A|---5-5-5-5-5-5-5-5-5-5-5-5-5--4-4-4-4----------------------------|
E|---3-3-3-3-3-3-3-3-3-3-3-3-3--2-2-2-2----------------------------|

Gtr.1 plays bridge 4 times, then solo. It's already tabbed correctly.

Guitars play high melody, then chorus, then outro (same as chorus).
comments
We did not receive enough feedback on this tab! Please rate:
print report bad tab
1 2 3 4 5
I want to post or [tab]
guest
You may want to rate the tab now too:
select rating
Please do not post tabs as comments. Select "correction" instead!