Oops, an error
Loading. Please wait.

Feathers Tab

version 5
version 5

Interactive

3,039 views 1 this week
no commentswrite comment
1 2 3 4 5
accurate
x 5
add to favorites
launch autoscroll
font size
0
reset
how to read this tab
guitar tuner
Autoscroll
slow
fast
+/-
esc
set tempo
stop
Help us to improve Ultimate-Guitar.com Take our survey!
×
Author
Difficulty
Tabbed by: doppleganger4
Email: goodappolo4@yahoo.com
 

MY FIRST TAB SO I HOPE ITS RIGHT...


Tuning: standard(EADGBe)

  SINGLE INTRO 

e|-------------------------------------------------------------------------|
B|-------------------------------------------------------------------------|
G|---8-8-8-8-8-8-8-8-8-8-8-8-8-8-8-8-8-8-8-8-8-8-8-8-8-8-8-8-8-8-8-8-------|
D|---7-7-7-7-7-7-7-7-7-7-7-7-7-7-7-7-7-7-7-7-7-7-7-7-7-7-7-7-7-7-7-7-------|
A|---9-9-9-9-9-9-9-9-9-9-9-9-9-9-9-9-0-0-0-0-0-0-0-0-0-0-0-0-0-0-0-0-------|
E|-------------------------------------------------------------------------|
     x x   x x   x x   x x   x   x   x x   x x   x x   x x   x   x
e|-------------------------------------------------------------------------|
B|-------------------------------------------------------------------------|
G|---8-8-8-8-8-8-8-8-8-8-8-8-8-8-8-8-8-8-8-8-8-8-8-8-----------------------|
D|---7-7-7-7-7-7-7-7-7-7-7-7-7-7-7-7-7-7-7-7-7-7-7-7-----------------------|
A|---9-9-9-9-9-9-9-9-9-9-9-9-9-9-9-9-0-0-0-0-0-0-0-0---------0h10hp7p0-----|
E|----------------------------------------------------0h7h10p0-------------|
     x x   x x   x x   x x   x   x   x x   x x   x x
e|---------------------|
B|---------------------|
G|---------------------|
D|---------------------|
A|-----------0h10p7p0--|
E|--0h7h10p0-----------|

  INTRO

e|-------------------------------------------------------------------------|
B|-------------------------------------------------------------------------|
G|---8-8-8-8-8-8-8-8-8-8-8-8-8-8-8-8-8-8-8-8-8-8-8-8-8-8-8-8-8-8-8-8-------|
D|---7-7-7-7-7-7-7-7-7-7-7-7-7-7-7-7-7-7-7-7-7-7-7-7-7-7-7-7-7-7-7-7-------|
A|---9-9-9-9-9-9-9-9-9-9-9-9-9-9-9-9-0-0-0-0-0-0-0-0-0-0-0-0-0-0-0-0-------|
E|-------------------------------------------------------------------------|
     x x   x x   x x   x x   x   x   x x   x x   x x   x x   x   x

e|-------------------------------------------------------------------------|
B|-------------------------------------------------------------------------|
G|---8-8-8-8-8-8-8-8-8-8-8-8-8-8-8-8-8-8-8-8-8-8-8-8-----------------------|
D|---7-7-7-7-7-7-7-7-7-7-7-7-7-7-7-7-7-7-7-7-7-7-7-7-----------------------|
A|---9-9-9-9-9-9-9-9-9-9-9-9-9-9-9-9-0-0-0-0-0-0-0-0----------0h10hp7p0----|
E|----------------------------------------------------0h7h10p0-------------|
     x x   x x   x x   x x   x   x   x x   x x   x x
e|---------------------|
B|---------------------|
G|---------------------|
D|---------------------|
A|-----------0h10p7p0--|
E|--0h7h10p0-----------|

e|-------------------------------------------------------------------------|
B|-------------------------------------------------------------------------|
G|---8-8-8-8-8-8-8-8-8-8-8-8-8-8-8-8-8-8-8-8-8-8-8-8-8-8-8-8-8-8-8-8-------|
D|---7-7-7-7-7-7-7-7-7-7-7-7-7-7-7-7-7-7-7-7-7-7-7-7-7-7-7-7-7-7-7-7-------|
A|---9-9-9-9-9-9-9-9-9-9-9-9-9-9-9-9-0-0-0-0-0-0-0-0-0-0-0-0-0-0-0-0-------|
E|-------------------------------------------------------------------------|
     x x   x x   x x   x x   x   x   x x   x x   x x   x x   x   x
e|-------------------------------------------------------------------------|
B|-------------------------------------------------------------------------|
G|---8-8-8-8-8-8-8-8-8-8-8-8-8-8-8-8-8-8-8-8-8-8-8-8-----------------------|
D|---7-7-7-7-7-7-7-7-7-7-7-7-7-7-7-7-7-7-7-7-7-7-7-7-----------------------|
A|---9-9-9-9-9-9-9-9-9-9-9-9-9-9-9-9-0-0-0-0-0-0-0-0----------0h10hp7p0----|
E|----------------------------------------------------0h7h10p0-------------|
     x x   x x   x x   x x   x   x   x x   x x   x x
e|---------------------|
B|---------------------|
G|---------------------|
D|---------------------|
A|-----------0h10p7p0--|
E|--0h7h10p0-----------|

e|-------------------------------------------------------------------------|
B|-------------------------------------------------------------------------|
G|---8-8-8-8-8-8-8-8-8-8-8-8-8-8-8-8-8-8-8-8-8-8-8-8-8-8-8-8-8-8-8-8-------|
D|---7-7-7-7-7-7-7-7-7-7-7-7-7-7-7-7-7-7-7-7-7-7-7-7-7-7-7-7-7-7-7-7-------|
A|---9-9-9-9-9-9-9-9-9-9-9-9-9-9-9-9-0-0-0-0-0-0-0-0-0-0-0-0-0-0-0-0-------|
E|-------------------------------------------------------------------------|
     x x   x x   x x   x x   x   x   x x   x x   x x   x x   x   x
e|----------------------------------|
B|----------------------------------|
G|----------------------------------|
D|----------------------------------|
A|---7-7-7-7-7-7-7-7-7-7-7-7-7-7-7--|
E|---5-5-5-5-5-5-5-5-5-5-5-5-5-5-5--|
     x x x x x x x x 

  CHORUS (CLAUDIO)
  TRAVIS CHORUS IS NOT EVEN CLOSE TO WHAT 
  CLAUDIO PLAYS AND ITS HARD TO HEAR IT...

e|------------------------------------------|
B|------------------------------------------|
G|------------------------------------------|
D|-------------4-----------9----------------|
A|-7-----2-----2-----7-----7----9-----9~----|
E|-5-----0-----------5----------7-----7~----|

  
e|------------------------------------|
B|------------------------------------|
G|------------------------------------|
D|-------------4-----------9----------|
A|-7-----2-----2-----7-----7----9-----|
E|-5-----0-----------5----------7-----|

INTRO (AGAIN)

e|-------------------------------------------------------------------------|
B|-------------------------------------------------------------------------|
G|---8-8-8-8-8-8-8-8-8-8-8-8-8-8-8-8-8-8-8-8-8-8-8-8-8-8-8-8-8-8-8-8-------|
D|---7-7-7-7-7-7-7-7-7-7-7-7-7-7-7-7-7-7-7-7-7-7-7-7-7-7-7-7-7-7-7-7-------|
A|---9-9-9-9-9-9-9-9-9-9-9-9-9-9-9-9-0-0-0-0-0-0-0-0-0-0-0-0-0-0-0-0-------|
E|-------------------------------------------------------------------------|
     x x   x x   x x   x x   x   x   x x   x x   x x   x x   x   x

e|-------------------------------------------------------------------------|
B|-------------------------------------------------------------------------|
G|---8-8-8-8-8-8-8-8-8-8-8-8-8-8-8-8-8-8-8-8-8-8-8-8-----------------------|
D|---7-7-7-7-7-7-7-7-7-7-7-7-7-7-7-7-7-7-7-7-7-7-7-7-----------------------|
A|---9-9-9-9-9-9-9-9-9-9-9-9-9-9-9-9-0-0-0-0-0-0-0-0----------0h10hp7p0----|
E|----------------------------------------------------0h7h10p0-------------|
     x x   x x   x x   x x   x   x   x x   x x   x x
e|---------------------|
B|---------------------|
G|---------------------|
D|---------------------|
A|-----------0h10p7p0--|
E|--0h7h10p0-----------|

e|-------------------------------------------------------------------------|
B|-------------------------------------------------------------------------|
G|---8-8-8-8-8-8-8-8-8-8-8-8-8-8-8-8-8-8-8-8-8-8-8-8-8-8-8-8-8-8-8-8-------|
D|---7-7-7-7-7-7-7-7-7-7-7-7-7-7-7-7-7-7-7-7-7-7-7-7-7-7-7-7-7-7-7-7-------|
A|---9-9-9-9-9-9-9-9-9-9-9-9-9-9-9-9-0-0-0-0-0-0-0-0-0-0-0-0-0-0-0-0-------|
E|-------------------------------------------------------------------------|
     x x   x x   x x   x x   x   x   x x   x x   x x   x x   x   x
e|-------------------------------------------------------------------------|
B|-------------------------------------------------------------------------|
G|---8-8-8-8-8-8-8-8-8-8-8-8-8-8-8-8-8-8-8-8-8-8-8-8-----------------------|
D|---7-7-7-7-7-7-7-7-7-7-7-7-7-7-7-7-7-7-7-7-7-7-7-7-----------------------|
A|---9-9-9-9-9-9-9-9-9-9-9-9-9-9-9-9-0-0-0-0-0-0-0-0----------0h10hp7p0----|
E|----------------------------------------------------0h7h10p0-------------|
     x x   x x   x x   x x   x   x   x x   x x   x x
e|---------------------|
B|---------------------|
G|---------------------|
D|---------------------|
A|-----------0h10p7p0--|
E|--0h7h10p0-----------|

e|-------------------------------------------------------------------------|
B|-------------------------------------------------------------------------|
G|---8-8-8-8-8-8-8-8-8-8-8-8-8-8-8-8-8-8-8-8-8-8-8-8-8-8-8-8-8-8-8-8-------|
D|---7-7-7-7-7-7-7-7-7-7-7-7-7-7-7-7-7-7-7-7-7-7-7-7-7-7-7-7-7-7-7-7-------|
A|---9-9-9-9-9-9-9-9-9-9-9-9-9-9-9-9-0-0-0-0-0-0-0-0-0-0-0-0-0-0-0-0-------|
E|-------------------------------------------------------------------------|
     x x   x x   x x   x x   x   x   x x   x x   x x   x x   x   x
e|----------------------------------|
B|----------------------------------|
G|----------------------------------|
D|----------------------------------|
A|---7-7-7-7-7-7-7-7-7-7-7-7-7-7-7--|
E|---5-5-5-5-5-5-5-5-5-5-5-5-5-5-5--|
     x x x x x x x x 
 
  CHORUS
e|------------------------------------|
B|------------------------------------|
G|------------------------------------|
D|-------------4-----------9----------|
A|-7-----2-----2-----7-----7----9-----|
E|-5-----0-----------5----------7-----|

e|------------------------------------|
B|------------------------------------|
G|------------------------------------|
D|-------------4-----------9----------|
A|-7-----2-----2-----7-----7----9-----|
E|-5-----0-----------5----------7-----|
  
  THIS PIECE??

e|-------------------------|
B|-------------------------|
G|-------------------------|
D|-------------------------|
A|10-----7-----2-----4-----|
E|-8-----5-----0-----2-----|

e|-------------------------|
B|-------------------------|
G|-------------------------|
D|-------------------------|
A|10-----7-----2-----4-----|
E|-8-----5-----0-----2-----|  

  INTERLUDE(I THINK)

e|------------------------------------|
B|------------------------------------|
G|----9-----9-----9-----9-----9-------|
D|------9-----9-----9-----9-----9-----|
A|--7-----7-----7-----7-----7-----7---|
E|------------------------------------|

e|------------------------------------|
B|------------------------------------|
G|----9-----9-----9-----9-----9-7-6---|
D|------9-----9-----------9---------9-|
A|--11----11----11---9------9---------|
E|------------------------------------|

e|------------------------------------|
B|------------------------------------|
G|----9-----9-----9-----9-----9-------|
D|------9-----9-----9-----9-----9-----|
A|--7-----7-----7-----7-----7-----7---|
E|------------------------------------|

e|------------------------------------|
B|------------------------------------|
G|----9-----9-----9-----9-----9-7-6---|
D|------9-----9-----------9---------9-|
A|--11----11----11---9------9---------|
E|------------------------------------|
  
  OUTRO 

e|------------------------------------|
B|------------------------------------|
G|------------------------------------|
D|-------------4-----------9----------|
A|-7-----2-----2-----7-----7----9-----|
E|-5-----0-----------5----------7-----|

e|------------------------------------|
B|------------------------------------|
G|------------------------------------|
D|-------------4-----------9----------|
A|-7-----2-----2-----7-----7----9-----|
E|-5-----0-----------5----------7-----|

(CONTINUE CHORUS BUT END  THE SONG THIS CHORD)

e|----|
B|----|
G|----|
D|----|
A|-10-|
E|-8--| THE END...I HOPE YOU LIKE IT. OH AND PLEASE RATE IT...

Suggest correction
comments
print report bad tab
guest
You may want to rate the tab now too:
select rating
Please do not post tabs as comments. Select "correction" instead!