Oops, an error
Loading. Please wait.

God Send Conspirator Bass Tab

version 1
version 1

Whole song

Interactive

1,009 views 3 this week
no commentswrite comment
1 2 3 4 5
please rate
add to favorites
launch autoscroll
font size
0
reset
guitar tuner
Tab Pro tools
  • play this tab
  • loop segment
  • change instrument
  • show fretboard
  • metronome
×
Best way to learn
"God Send Conspirator"
Autoscroll
slow
fast
+/-
esc
set tempo
stop
Contributor
Band: Coheed And Cambria
Song: God Send Conspirator
Album: The Second Stage Turbine Blade
Originally Tabbed by: choke383
Revised by: spayde88
Normal Tuning: GDAE


0:05
G|---------------------------------------------------------|
D|---------------------------------------------------5-----|
A|3h5---5h7------------5h7--7--5----5--5h7-5\3-2h33----33--|
E|---5p3---0--2-33--5h7----------7-------------------------|

|-----------------------------------------------------------|
|--------------------------------------------4-55\----------|
|-55-33--3--3-33-3/55-577------------5h7--7-----------5h7---|
|--------------------7---0--2-33--5h7--------------5h7------|

|-------------------------------------------------------------------------|
|-------------------------------------------------------------------------|
|-3--3-33--55-33--3--3-33-3/55-577------------5h7-----------5h7-5\3-2h33--|
|-----------------------------7---0--2-33--5h7-----0--2-33----------------|

|------------------(4)/5---------------------------------------------|
|-5--------------5-------5----------------------------4-55\----------|
|---33--55-33--3----------3/55-577------------5h7--7-----------5h7---|
|-----------------------------7---0--2-33--5h7--------------5h7------|

|---------------------------------------------------------------------|
|---5-------------------------------------------------4-55\-----------|
|3----33--55-33--3--3-33-3/55-55h7------------5h7--7--------5h7-5\3---|
|----------------------------7----0--2-33--5h7------------------------|


1:06
G|---------------------------------------------------------------------|
D|--------------------------------------532-----532-3333333333333333---|
A|------5---------5-------2--55-5--33333---33333-----------------------|
E|-33-3---3--33-3---3--00----------------------------------------------|

G|-------------------------------------------------------------------------|
D|-------77----------77----------------------532-----532-3333333333333333--|
A|----55----55----55----55-----2--55-5--33333---33333----------------------|
E|-33----------33-----------00---------------------------------------------|

G|-------------------------------------|
D|-------------------------------------|
A|------------------33322200222000-----|
E|-0000000000000000---------------33---|


1:36
G|--------------------------------------------------------------------------|
D|--------5-----------------------------------------------------------------|
A|-2h3-3----33--55-33--3--3-33-3h5---5h7------------------------------------|
E|--------------------------------5p3---00-2-22-3-33-2-22-0000-2-22-3-33----|

G|----------------------------------------------------------------------|
D|------------5---------------------------------------------------------|
A|----5h7--3----33--55-33--3--3-33-3/55-577------------5h7--7--5----5---|
E|-5h7---------------------------------7---0--2-33--5h7----------7------|

G|-----------------------------------------------------------------------|
D|---------------5------------------------------------------------4-55\--|
A|-5h7-5\3-2h33----33--55-33--3--3-33-3/55-577------------5h7--7---------|
E|----------------------------------------7---0--2-33--5h7---------------|

G|-----------------------------------------------------------------------|
D|---------------5------------------------------------------------4-55\--|
A|-5h7-5\3-2h33----33--55-33--3--3-33-3/55-577------------5h7--7---------|
E|----------------------------------------7---0--2-33--5h7---------------|


2:29
G|---------------------------------------------------------------------|
D|--------------------------------------532-----532-3333333333333333---|
A|------5---------5-------2--55-5--33333---33333-----------------------|
E|-33-3---3--33-3---3--00----------------------------------------------|

G|-------------------------------------------------------------------------|
D|-------77----------77----------------------532-----532-3333333333333333--|
A|----55----55----55----55-----2--55-5--33333---33333----------------------|
E|-33----------33-----------00---------------------------------------------|


2:54
G|---------------------------------------------------------------------------|
D|---------------------------------------------------------------------------|
A|-33-33-3333-33--3333-33-33-3/5555-5/7777-----------------------------------|
E|-----------------------------------------00000000000000000000000000000000--|x3


3:32   «Dear Mariah come sleep in your own»
G|-----------------------|
D|-----------------------|
A|--------3--------------|
E|-3~---1---11----1/5----|x3

G|--------------|
D|--------------|
A|--------------|
E|-3~-------1~--|


3:54    «When eye meets eye»
G|-----------------------------------------------------------------------|
D|----5-------------------7-7-45775544-----------------------------------|
A|-23--32222/55522222/5555-5-5-------------------------55-55-5554-4445---|
E|------------------------------------3333333333333333----------------5--|x(Fade Out)
comments
We did not receive enough feedback on this tab! Please rate:
print report bad tab
1 2 3 4 5
I want to post or [tab]
guest
You may want to rate the tab now too:
select rating
Please do not post tabs as comments. Select "correction" instead!