Oops, an error
Loading. Please wait.

God Send Conspirator Tab

version 1
version 1

Whole song

Interactive

37,566 views 30 this week
12 commentsread comments
1 2 3 4 5
x 13
add to favorites
launch autoscroll
font size
0
reset
how to read this tab
guitar tuner
×
Best way to learn
"God Send Conspirator"
Autoscroll
slow
fast
+/-
esc
set tempo
stop
(guitar 1)
e|---------------------------------|
b|-0x-0-00---------0x-0-00---3-----|
g|-4x-4-44---------4x-4-44----5----|
D|-5x-5-55--77-55--5x-5-55--5--5---|
A|-3x-3-33--55-33--3x-3-33---------|
E|---------------------------------|

e|---------------------------------------|
b|-0x-0-00--x3h5p3-0--0x-0-00--x1h3p1-0--|
g|-2x-2-22------------2x-2-22------------|
D|-0x-0-00------------0x-0-00------------|
A|-3x-3-33------------3x-3-33------------|
E|---------------------------------------|

(guitar 2)
e|---------------------------------|
b|-10--10-1010-------10--10-1010---|
g|-11x-11-1111x------11x-11-1111---|
D|-12x-12-1212x------12x-12-1212---|
A|---------------------------------|
E|---------------------------------|

e|-10x-10-10~-----------------------10x-10-10-10~-------7--------|
b|-10x-10-----13p12p10--------------10x-10-10----10------8--8~---|
g|-11x-11--------------12------12~--11x-11-11------11-----9------|
D|-12x-12-----------------12h14-----12x-12-12--------12----------|
A|---------------------------------------------------------------|
E|---------------------------------------------------------------|

(both guitars)
e|-------------------------------|
b|-------------------------------|
g|-------------------------------|
D|-----77--------77--------------|
A|---55--55----55--55------------|
E|-33--------33------------------|

(guitar 1)
e|--------------------------------------|
b|------3-------------------------------|
g|------4-xx-77-7--5555555--------------|
D|-22---4-xx-77-7--5555555--3333333-----|
A|-22---2-xx-55-5--3333333--3333333-----|
E|-00-0---------------------1111111-----|

e|//10-10---1010-----10-----10-----|
b|//8----8------8h10----8h10---8-8-|
g|//9-----9---------------------|
D|------------------------------|
A|------------------------------|
E|------------------------------|

(both guitars)
e|-------------------------------|
b|-------------------------------|
g|-------------------------------|
D|-----77--------77--------------|
A|---55--55----55--55------------|
E|-33--------33------------------|

fight on fire (fight on fire)

(both guitars)
e|--------------------------------------|
b|------3-------------------------------|
g|------4-xx-77-7--5555555--------------|
D|-22---4-xx-77-7--5555555--3333333-----|
A|-22---2-xx-55-5--3333333--3333333-----|
E|-00-0---------------------1111111-----|

burn my hands till i got nothing left to count my numbers on

e|------------------------------------|
b|------------------------------------|
g|------------------------------------|
D|-22222222-555-555-55-555-555--------|
A|-22222222-333-222-00-222-000-00-----|
E|-00000000--------------------33-----|

that's wrong (thats wrong)

(guitar 1)
e|---------------------------------|
b|-0x-0-00---------0x-0-00---3-----|
g|-4x-4-44---------4x-4-44----5----|
D|-5x-5-55--77-55--5x-5-55--5--5---|
A|-3x-3-33--55-33--3x-3-33---------|
E|---------------------------------|

e|---------------------------------------|
b|-0x-0-00--x3h5p3-0--0x-0-00--x1h3p1-0--|
g|-2x-2-22------------2x-2-22------------|
D|-0x-0-00------------0x-0-00------------|
A|-3x-3-33------------3x-3-33------------|
E|---------------------------------------|

(guitar 2)
e|---------------------------------|
b|-10--10-1010-------10--10-1010---|
g|-11x-11-1111x------11x-11-1111---|
D|-12x-12-1212x------12x-12-1212---|
A|---------------------------------|
E|---------------------------------|

e|-10x-10-10~-----------------------10x-10-10-10~-------7--------|
b|-10x-10-----13p12p10--------------10x-10-10----10------8--8~---|
g|-11x-11--------------12------12~--11x-11-11------11-----9------|
D|-12x-12-----------------12h14-----12x-12-12--------12----------|
A|---------------------------------------------------------------|
E|---------------------------------------------------------------|

(both guitars)
e|-------------------------------|
b|-------------------------------|
g|-------------------------------|
D|-----77--------77--------------|
A|---55--55----55--55------------|
E|-33--------33------------------|

dear mariah

(guitar 1)
e|--------------------------------------|
b|------3-------------------------------|
g|------4-xx-77-7--5555555--------------|
D|-22---4-xx-77-7--5555555--3333333-----|
A|-22---2-xx-55-5--3333333--3333333-----|
E|-00-0---------------------1111111-----|

(guitar 2)
e|//10-10---1010-----10-----10-----|
b|//8----8------8h10----8h10---8-8-|
g|//9-----9------------------------|
D|---------------------------------|
A|---------------------------------|
E|---------------------------------|

the worlds not big enough for the both of us when we live in the same town

(both guitars)
e|-------------------------------|
b|-------------------------------|
g|-------------------------------|
D|-----77--------77--------------|
A|---55--55----55--55------------|
E|-33--------33------------------|

fight on fire(fight on fire)

(both guitars)
e|--------------------------------------|
b|------3-------------------------------|
g|------4-xx-77-7--5555555--------------|
D|-22---4-xx-77-7--5555555--3333333-----|
A|-22---2-xx-55-5--3333333--3333333-----|
E|-00-0---------------------1111111-----|

burn my hands till i got nothing left to count my numbers on

(both guitars)
e|----------------------------------------------------|
b|----------------------------------------------------|
g|-------------------22-22-22-22-22-22----------------|
D|-22-22-22-33-33-33-00-00-00-00-00-00-2222222222-----|
A|-33-33-33-33-33-33-33-33-33-33-33-33-0000000000-----|
E|----------------------------------------------------|

(guitar 2)
e|-----7~-5~---|
b|---5------5--|
g|-/5-5--------|
D|-------------|
A|-------------|
E|-------------|

e|-----12~-10~-|
b|---8---------|
g|-/9-9--------|
D|-------------|
A|-------------|
E|-------------|

(guitar 1)
e|-3---------------------------|
b|-3----1---1----1---1---0-----|
g|-0--0--0---0----0---0---0----|
D|-0--3---3---3----3---3-------| (4x)
A|-2--3------------------------|
E|-3---------------------------|

e|-3-----|
b|-3--1--|
g|-0--0--|
D|-0--2--| 
A|-2-----|
E|-3-----|

(guitar 20
e|----/8---8---8---8---8------|
b|----/-8---8---8---8---8-----|
g|-8--/--10--10--10--10--10---| (3x)
D|-10-------------------------|
A|-10-------------------------|
E|----------------------------|

dear mariah come sleep in your own...

(guitar 1)
e|-7--|
b|-8--|
g|-10-|
D|-10-|
A|----|
E|----|

(guitar 1)
e|-------------------------------------------------------------------------|
b|-------------------------------------------------------------------------|
g|-44444444---------2222222-----(2*)(2*)-----------------------------------| 
D|-44444444-4444444-2222222-(2h4*)------(0h2*h4*)---555555-22-22-----------|
A|-22222222-4444444-0000000-----------------------0-555555-22-22-00-55-55--|
E|--------------------------------------------------333333-00-00-00-33-33--|

(guitar 2)
e|-----------------(7)(7)------------/12-----12----0-------------------------|
b|-0------0----0---------(7)(7)----------14----14---0------------------------|
g|--7------6----7--------------(7)(7)------14----14--------------------------| 
D|---99-/7--7-7--9-------------------------------------55555-22-22-----------|
A|-----------------------------------------------------55555-22-22-00-55-55--|
E|-----------------------------------------------------33333-00-00-00-33-33--|


************************************

| x    Dead note
| h    Hammer-on
| p    Pull-off
| ~    Vibrato
| /    Slide up
| (n)  Ghost note

************************************
Suggest correction
comments
print report bad tab
12 comments total. Showing first comments.
-1 reply
concealed 10 Sep 15, 2004 12:00 AM

this is my tab...where do you people get my tabs from?!

jesus christ!

www.coheedtabs.cjb.net

0 reply
joecool71 510 Sep 15, 2004 12:00 AM

Well, I was hoping to post a tab of every Coheed song, but this one is the only one where my posting a tab would be inconsequential. You magnificent bastard!

0 reply
afi_336 70 Jun 21, 2005 12:00 AM

the doesnt seem right

---
-0-
-3-
-0-
-2-
---

guest
You may want to rate the tab now too:
select rating
Wanna post a correction for this tab? Suggest correction