Oops, an error
Loading. Please wait.

Goodnight Fair Lady bass

version 1
version 1

Whole song

Interactive

5,099 views 1 this week
no commentswrite comment
1 2 3 4 5
x 5
add to favorites
×
Save as Personal and add changes to this tab that will be seen only by you. Learn more ›
×
You can save this tab as Personal to edit and correct it or add notes. All changes will be seen only by you. Learn more »
launch autoscroll
font size
0
reset
guitar tuner
edit
Autoscroll
slow
fast
+/-
esc
set tempo
stop
Author
Difficulty
Goodnight, Fair Lady
Coheed & Cambria
The Afterman: Ascension

Tabbed By : fender4string
Tuning: standard

Intro
G|---------------------------------------------------|
D|---------------2-----3-2---------------------------|
A|-----------3-----5-3-----3--1--1-11-/5---5-3-1-3-5-| 
E|-1---1-1-------------------------------------------|

G|---------------------------------------------------|
D|---------------2-----3-2---------------------------|
A|-----------3-----5-3-----3--1--1-11-/5---5-3-1-3-5-| 
E|-1--1-11-------------------------------------------|


Verse 1
"Good evening ladies and gentlemen..."
G|----------------------------------------|
D|----------------------------------------|
A|-----------------3--1----/5---5-3-1-3-5-|
E|-1--------------------------------------|

G|-------------------------------------------------|
D|---------------2-----3-2-------------------------|
A|-----------3-----5-3-----3--1--1-11--/5--5--3--5-|
E|-1--1--11----------------------------------------|

"Oh, lord I think I deserve..."
G|---------------------------------------------------|
D|---------------2-----3-2---------------------------|
A|-----------3-----5-3-----3--1--1-11-/5---5-3-1-3-5-|
E|-1--1--11------------------------------------------|

G|---------------------------------------------------|
D|---------------2-----3-2---------------------------|
A|-----------3-----5-3-----3--1--1-11-/5---5-3-1-3-5-|
E|-1--1--11------------------------------------------|


Pre-Chorus
"Turn me over, roll me 'round..."
G|----------------------------------|
D|-----------3-2--------------------|
A|-1--11---------5-0-3--33--------3-|
E|----------------------------------|


Chorus (Play  first 2 bars with staccato notes)
"Oh don't believe everything you hear..."
G|-----------------------------------------------------|
D|-----------------------------------------------------|
A|-------------------5-55555555555555-1-------3--------|
E|-1--11111111111111-----------------------------------|


Intro/Reprise
G|---------------------------------------------------|
D|---------------2-----3-2---------------------------|
A|-----------3-----5-3-----3--1--1-11-/5---5-3-1-3-5-|
E|-1--1--11------------------------------------------|

G|---------------------------------5---------------------|
D|---------------2-----3-2-------3---3-------------------|
A|-----------3-----5-3-----3--1--------1--/5---5-3-1-3-5-|
E|-1--1--11----------------------------------------------|


Verse 2
"Let's get crazy, I'll make my pass..."
G|---------------------------------------------------|
D|---------------2-----3-2---------------------------|
A|-----------3-----5-3-----3--1--1-11-/5---5-3-1-3---|
E|-1--1--11------------------------------------------|

G|---------------------------------5------------------|
D|---------------2-----3-2----------------------------|
A|-----------3-----5-3-----3--1--1---1-/5---5-3-1-3-5-|
E|-1--1--11-------------------------------------------|


Pre-Chorus (No variations)

Chorus(No variations)

Bridge
G|-----------------------------------------------------------------------|
D|-----------------------------------------------------------------3-2---|
A|-5-55555555555555-3-33333333333333-1-11111111111111------------------3-|
E|----------------------------------------------------3-3-5-5-6-6--------|

G|----------------------------------------------------------------------|
D|----------------------------------------------------------------------|
A|-5-55555555778877-3-33333333555778-1-11111111111111-------------------|
E|----------------------------------------------------3-333333-5-555555-|


Intro/Reprise
G|-------------------------------------------------------|
D|-------------------------------------------------------|
A|----------------------------------------/5---5-3-1-3-5-|
E|-1-----------------------------------------------------|


GOODNIGHT FAIR LADY!
G|---------------------------------------------------|
D|---------------2-----3-2---------------------------|
A|-----------3-----5-3-----3--1--1-11-/5---5-3-1-3---|
E|-1--1--11------------------------------------------|

Prechorus(no variations)

Outro (First 2 bars play staccato then to eigths)
G|--------------------------------------------------------------------|
D|--------------------------------------------------------------------|
A|-------------------5-55555555555555-1-11111111111111-3-333333333333-|
E|-1--11111111111111--------------------------------------------------|

G|----------------------------------------------------------|
D|-----------------------------3-2--2-----------------------|
A|-------------------5-55555555---5--3-0-1-11111111111111-3-|
E|-1--11111111111111----------------------------------------|

G|----------------------------------|
D|----------------------------------|
A|----------------------------------|
E|-1--------------------------------|


| /  slide up
| \  slide down
| h  hammer-on
| p  pull-off
| ~  vibrato
| +  harmonic
| x  Mute note
===============================================================================

            
            
Suggest correction
Creating personal tab
Creating personal tab
You can edit any tab online and save it as your Personal.

You can edit, replace or remove any tab part or add personal notes – all changes will be seen only by you.

Personal tabs can be accessed anytime from any device, even offline.
Learn more »
comments
print report bad tab
guest
You may want to rate the tab now too:
select rating
Wanna post a correction for this tab? Suggest correction