Oops, an error
Loading. Please wait.

Goodnight Fair Lady Tab

version 1
version 1

Whole song

Interactive

25,873 views 30 this week
no commentswrite comment
1 2 3 4 5
excellent!
x 24
add to favorites
launch autoscroll
font size
0
reset
how to read this tab
guitar tuner
Tab Pro tools
  • play this tab
  • loop segment
  • change instrument
  • show fretboard
  • metronome
×
Best way to learn
"Goodnight Fair Lady"
Autoscroll
slow
fast
+/-
esc
set tempo
stop
Contributor
Title: Goodbye, Fair Lady
Artist: Coheed & Cambria
Album: The Afterman: Ascension

Tabbed by: Mike Ruiz (mjruiz10@hotmail.com)
Tabbed from the Fingerprints Record Store acoustic performance in
Long Beach, CA

This song is the fifth song off of Coheed & Cambria's new [double] record,
The Afterman: Ascension. I figured it out by watching a few videos of them
playing it acoustically at the Fingerprints Record Store performance. This
tab is all of Claudio's parts. Hopefully I will figure out Travis's parts as
well. The song is not too hard. This is my first tab so sorry if my format is weird. Enjoy!

Standard Tuning (EADGBe)

intro
e|------------------------------------------------------|
B|------------------------------------------------------|
G|------------------------------------------------------|
D|-------2---------2p0---3p2--------10------7-7\5-x-5/7-| x2
A|-----3---------3-----3-----3----8---------5-5\3-x-3/5-|
E|--1------1-1------------------6------6-6--------------|

Verse 1
e|------------------------------------------------------|
b|------------------------------------------------------|
G|------------------------------------------------------|
D|--3---------------------------------------7-7\5-x-5/7-|
A|--3-------------------------3-1-----------5-5\3-x-3/5-|
E|--1---------------------------------------------------|

e|------------------------------------------------------|
B|------------------------------------------------------|
G|------------------------------------------------------|
D|-------2---------2p0---3p2--------10------7-7-5-7-----|
A|-----3---------3-----3-----3----8---------5-5-3-5-----|
E|--1------1-1------------------6------6-6--------------|

e|------------------------------------------------------|
B|------------------------------------------------------|
G|------------------------------------------------------|
D|-------2---------2p0---3p2--------10------7-7\5-x-5/7-| x2
A|-----3---------3-----3-----3----8---------5-5\3-x-3/5-|
E|--1------1-1------------------6------6-6--------------|

PreChorus and Chorus
e|---|---|---|---|---|---|
B|---|---|---|---|---|---|
G|-3-|-5-|---|-7-|-3-|-5-|
D|-3-|-5-|-3-|-7-|-3-|-5-|
A|-1-|-3-|-3-|-5-|-1-|-3-|
E|---|---|-1-|---|---|---|

e|------------------------------------------------------|
B|------------------------------------------------------|
G|------------------------------------------------------|
D|-------2---------2p0---3p2--------10------7-7\5-x-5/7-| x2
A|-----3---------3-----3-----3----8---------5-5\3-x-3/5-|
E|--1------1-1------------------6------6-6--------------|

Verse 2
e|------------------------------------------------------|
B|------------------------------------------------------|
G|------------------------------------------------------|
D|-------2---------2p0---3p2--------10------7-7\5-x-5\--|
A|-----3---------3-----3-----3----8---------5-5\3-x-3\--|
E|--1------1-1------------------6------6-6--------------|

e|------------------------------------------------------|
B|------------------------------------------------------|
G|------------------------------------------------------|
D|-------2---------2p0---3p2---------10-----7-7\5-x-5/7-| 
A|-----3---------3-----3-----3--------------5-5\3-x-3/5-|
E|--1------1-1------------------6-6-----6---------------|

PreChorus and Chorus
e|---|---|---|---|---|---|
B|---|---|---|---|---|---|
G|-3-|-5-|---|-7-|-3-|-5-|
D|-3-|-5-|-3-|-7-|-3-|-5-|
A|-1-|-3-|-3-|-5-|-1-|-3-|
E|---|---|-1-|---|---|---|

Bridge
e|---|---|---|-------------------------|
B|---|---|---|-------------------------|
G|-7-|-5-|-3-|-------------------------|
D|-7-|-5-|-3-|-5--5-7--7-8--8----------|
A|-5-|-3-|-1-|-5--5-7--7-8--8---/8-7---|
E|---|---|---|-3--3-5--5-6--6--------8-|

e|---|---|---|---|---|
B|---|---|---|---|---|
G|-7-|-5-|-3-|---|---|
D|-7-|-5-|-3-|-5-|-7-|
A|-5-|-3-|-1-|-5-|-7-|
E|---|---|---|-3-|-5-|

Then play verse again
e|------------------------------------------------------|
B|------------------------------------------------------|
G|------------------------------------------------------|
D|-------2---------2p0---3p2--------10------7-7\5-x-5/7-| x2
A|-----3---------3-----3-----3----8---------5-5\3-x-3/5-|
E|--1------1-1------------------6------6-6--------------|

PreChorus and Chorus again
e|---|---|---|---|---|---|
B|---|---|---|---|---|---|
G|-3-|-5-|---|-7-|-3-|-5-|
D|-3-|-5-|-3-|-7-|-3-|-5-|
A|-1-|-3-|-3-|-5-|-1-|-3-|
E|---|---|-1-|---|---|---|

e|---|---|---|------1----|
B|---|---|---|------1----|
G|---|-7-|-3-|-5~---2----|
D|-3-|-7-|-3-|-5~---3----|Strum last chord slowly
A|-3-|-5-|-1-|-3~---3----|
E|-1-|---|---|------1----|
comments
print report bad tab
I want to post or [tab]
guest
You may want to rate the tab now too:
select rating
Please do not post tabs as comments. Select "correction" instead!