Oops, an error
Loading. Please wait.

Goodnight Fair Lady Tab

version 2
version 2

Whole song

Interactive

7,631 views 9 this week
2 commentsread comments
1 2 3 4 5
accurate
x 8
add to favorites
launch autoscroll
font size
0
reset
how to read this tab
guitar tuner
Autoscroll
slow
fast
+/-
esc
set tempo
stop
Help us to improve Ultimate-Guitar.com Take our survey!
×
Author
Difficulty
intermediate
-------------------------------------------------------------------------------
                         Goodnight, Fair Lady(Acoustic) - Coheed and Cambria
-------------------------------------------------------------------------------  
Tabbed by: WolfbainFox
Email: Thomasgreene101@yahoo.com


Tuning: Standard 



Intro
        Guitar 1-Claudio Sanchez        
e|---------------------------------------------------------------------------|
B|---------------------------------------------------------------------------|
G|--------------------------------------------------------------7-7\5-5/7--x-|
D|--10\-x-------2------x-----2--0-----3--2--0---------10-----x--7-7\5-5/7--x-|
A|--10\-x----3---------x-/3--------3---------------8---------x--5-5\3-3/5--x-|
E|--8\--x-1-------1-1/-x-----------------------6~~--------6--x---------------|
                
e|---------------------------------------------------------------------------|
B|---------------------------------------------------------------------------|
G|----------------------------------------------------------7-7\5-5/7--x-----|
D|----------2------x-----2--0-----3--2--0---------10-----x--7-7\5-5/7--x-----|
A|-------3---------x-/3--------3---------------8---------x--5-5\3-3/5--x-----|
E|----1-------1--1/-x-----------------------6~~--------6--x------------------|

Verse 1
e|---------------------------------------------------------------------------|
B|---------------------------------------------------------------------------|
G|----------------------------------------------------------7-7\5-5/7--x-----|x4
D|----------2------x-----2--0-----3--2--0---------10-----x--7-7\5-5/7--x-----|
A|-------3---------x-/3--------3---------------8---------x--5-5\3-3/5--x-----|
E|----1-------1-1/-x-----------------------6~~--------6--x-------------------|
        
Chorus
e|-------------------------------------------------------------------------------|
B|-------------------------------------------------------------------------------|
G|--3---3-3-xxxxxxxxxxx-3---5-5-5-xxxxxxxxxxxx----------------777777777777--3-5--|
D|--3---3-3-xxxxxxxxxxx-3---5-5-5-xxxxxxxxxxxx--333333333333--777777777777--3-5--|
A|--1---1-1-xxxxxxxxxxx-1---3-3-3-xxxxxxxxxxxx--333333333333--555555555555--1-3--|
E|----------------------------------------------111111111111---------------------|

Repeat Intro 

Verse 2
e|---------------------------------------------------------------------------|
B|---------------------------------------------------------------------------|
G|----------------------------------------------------------7-7\5-5/7--x-----| x4
D|----------2------x-----2--0-----3--2--0---------10-----x--7-7\5-5/7--x-----|
A|-------3---------x-/3--------3---------------8---------x--5-5\3-3/5--x-----|
E|----1-------1-1/-x-----------------------6~~--------6--x-------------------|

Chorus
e|-------------------------------------------------------------------------------|
B|-------------------------------------------------------------------------------|
G|--3---3-3-xxxxxxxxxxx-3---5-5-5-xxxxxxxxxxxx----------------777777777777--3-5--|
D|--3---3-3-xxxxxxxxxxx-3---5-5-5-xxxxxxxxxxxx--333333333333--777777777777--3-5--|
A|--1---1-1-xxxxxxxxxxx-1---3-3-3-xxxxxxxxxxxx--333333333333--555555555555--1-3--|
E|----------------------------------------------111111111111---------------------|

Bridge 
e|---------------------------------------------------------------------------|
B|---------------------------------------------------------------------------|
G|---7----------------5-------5---5----3-------3---3-------------------------|
D|---7----------------5-------5---5----3-------3---3----55--77--88-x-1010----|
A|---5555555555555555-3333333333333333-1111111111111111-55--77--88-x-1010----|
E|------------------------------------------------------33--55--66-x-8-8-----|
                                Slight Palm Mute 
e|---------------------------------------------------------------------------|
B|---------------------------------------------------------------------------|
G|---7---7---7---7----5---5---5---5----3-------3---3-------------------------|
D|---7---7---7---7----5---5---5---5----3-------3---3----5-555555-7-777777----|
A|---5555555555555555-3333333333333333-1111111111111111-5-555555-7-777777----|
E|------------------------------------------------------3-333333-5-555555----|

Pre-Chorus      
e|---------------------------------------------------------------------------|
B|---------------------------------------------------------------------------|
G|----------------------------------------------------------7-7\5-5/7--x-----|x2
D|----------2------x-----2--0-----3--2--0---------10-----x--7-7\5-5/7--x-----|
A|-------3---------x-/3--------3---------------8---------x--5-5\3-3/5--x-----|
E|----1-------1-1/-x-----------------------6~~--------6--x-------------------|

Last Chorus
e|------------------------------------------------------------------------------------|
B|------------------------------------------------------------------------------------|
G|-3--33-xxxxxxxxxxx-3--555-xxxxxxxxxxxx---------------777777777777--3-33333333333333-|
D|-3--33-xxxxxxxxxxx-3--555-xxxxxxxxxxxx-333333333333--777777777777--3-33333333333333-|
A|-1--11-xxxxxxxxxxx-1--333-xxxxxxxxxxxx-333333333333--555555555555--1-11111111111111-|
E|---------------------------------------111111111111---------------------------------|

e|----------------------------------------------------------------------1------1---|
B|---------------------------------------------------------------------1-1-----1---|
G|--5555555555555555------------------7-777777777777--3-333333--7-----2---2----2---|
D|--5555555555555555--3-333333333333--7-777777777777--3-333333--7----3-----3---3---|
A|--3333333333333333--3-333333333333--5-555555555555--1-111111--5---3----------3---|
E|--------------------1-111111111111-------------------------------1-----------1---|

************************************

| /   slide up
| \   slide down
| h   hammer-on
| p   pull-off
| ~   vibrato
| +   harmonic
| x   Mute note
| b   Bend
| pb  Pre-bend
| br  Bend release
| pbr Pre-bend release
| brb Bend release bend

************************************
Suggest correction new What's this?
You can suggest a correction to this tab. Community and Mods will review your correction and vote to approve or reject it.
comments
print report bad tab
2 comments total.
0 reply
schueaj 11 wrote on January 29 2013, 06:48 am

Great tab my acoustic just doesn't want me to hit that last bar chord though

0 reply
ThatZachGuy 149 wrote on February 6 2013, 09:43 am

Great tab. Really need the leads for the chorus and bridge if anyone can work them out. I found a good tab for the intro lead in the Cobalt and Calcium forums (below), but I can't figure out the rest of the song.

E|----------------------------------------------------------------------------|
B|-------------6--------------------------------------------------------------|
G|------7--5----------------------------------------------------------5-------|
D|---------------7----7--7p-5/-3--5------------3--5--7--7v--5--3---3------7---|
A|------------------------------------3---3-----------------------------------|
E|----------------------------------------------------------------------------|

E|----------------------------------------------------------------------------|
B|-------------6--------------------------------------------------------------|
G|------7--5------------------------------------------------------------------|
D|---------------7----7--7p-5/-3--5------------3--5--7--7v--5--3---3--5---3---|
A|------------------------------------3---3-----------------------------------|
E|----------------------------------------------------------------------------|

Once again, good tab.

guest
You may want to rate the tab now too:
select rating
Please do not post tabs as comments. Select "correction" instead!