Oops, an error
Loading. Please wait.

Gravemakers And Gunslingers Tab

version 1
version 1

Whole song

Interactive

51,568 views 24 this week
13 commentsread comments
1 2 3 4 5
excellent!
x 22
add to favorites
launch autoscroll
font size
0
reset
how to read this tab
guitar tuner
Autoscroll
slow
fast
+/-
esc
set tempo
stop
Help us to improve Ultimate-Guitar.com Take our survey!
×
Author
Difficulty
advanced
Coheed and Cambria
Gravemakers and Gunslingers
Good Apollo I’m Burning Star IV Vol II: No World For Tomorrow (2007)
Performed by Claudio Sanchez, Travis Stever, Mic Todd, Taylor Hawkins
Tabulature
----------
Notation Legend
---------------
h - Hammer-On
p - Pull-Off
b - Bend
B - Bend (grace note) (bend as fast as you can)
r - Release Bend
. - Palm Mute
~ - Vibrato
tr~ - Trill (fast hammer-on/pull-off combination)
x\ - Pick Scrape
T - Tap
A.H - Artificial Harmonic
x - Fret-Hand Muting (percussive tone)
/ - Shift Slide Up
\ - Shift Slide Down
_
/ - Legato Slide Up (only first note picked)
_
\ - Legato Slide Down (only first note picked)
_
s - Legato Slide (grace note) (slide as fast as you can)
Chords indicate overal tonality
----------------------------------------------------------------------------------------------
Time Signature: 4/4
-------------
Intro / Verse
-------------
Guitar 1 (Claudio Sanchez)
e|-------------------------------------------------------------------------------------------|
B|-------------------------------------------------------------------------------------------|
G|-------------------5--------------5--------------------------------------------------------|
D|-5-7-7--7-7--5h7-5---7-5\3----5-7-3-7\---5-5-5--5-3----------------------------------------|
A|-3-5-5--5-5----------------5--3-5---5\-0-5-5-5--5-3----------------------------------------|
D|---------------------------------------0-5-5-5--5-3----------------------------------------|

e|-------------------------------------------------------------------------------------------|
B|-------------------------------------------------------------------------------------------|
G|-------------------5-----------------------------------------------------------------------|
D|-5-7-7--7-7--5h7-5---7-5\3----5-5--3-3--8-8--7-7-------------------------------------------|
A|-3-5-5--5-5----------------5--5-5--3-3--8-8--7-7-------------------------------------------|
D|------------------------------5-5--3-3--8-8--7-7-------------------------------------------|
-----------
Lead Fill 1
-----------
Guitar 2 (Travis Stever)
e|-15b17-17-17-17-17r15p13--------------------------------13---------------------------------|
B|-------------------------15-15~\------10h13p10tr~-13b15----15r13---------------------------|
G|----------------------------------12b------------------------------------------------------|
D|-------------------------------------------------------------------------------------------|
A|-------------------------------------------------------------------------------------------|
D|-------------------------------------------------------------------------------------------|
* hold bend
e|-13b15-13-10h13p10----10-------------------------------------------------------------------|
B|-------------------13----10-13----10-------------------------------------------------------|
G|-------------------------------12----12~--12-12-10-10-9-9-9h10-----------------------------|
D|---------------------------------------------------------------h12~------------------------|
A|-------------------------------------------------------------------------------------------|
D|-------------------------------------------------------------------------------------------|
-----------
Lead Fill 2
-----------
Guitar 2
e|-20b22-22-22-22-22-22-22-22-22r20p17-------------------------------------------------------|
B|-------------------------------------20-20~\--20b22r20p18----18h20--20b22r20p18------------|
G|----------------------------------------------------------19--------------------19---------|
D|-------------------------------------------------------------------------------------------|
A|-------------------------------------------------------------------------------------------|
D|-------------------------------------------------------------------------------------------|

e|------------------10------------------------10---------------------------------------------|
B|-20b22r20-18---------10-13b15r13-10------------10-13b15r13-10------------------------------|
G|--------------12b-------------------12--12b-------------------12-12-10-10-9-9-9h10---------|
D|-----------------------------------------------------------------------------------h12~----|
A|-------------------------------------------------------------------------------------------|
D|-------------------------------------------------------------------------------------------|
-----
Verse
-----
Guitar 2
e|-------------------------------------------------------------------------------------------|
B|-----------10----------------------10------------------------------------------------------|
G|-----10-------10-12----------10----------10-12~-12-12-12--12-10----------------------------|
D|-/12----12----------10--/12-----12----12---------------------------------------------------|
A|-------------------------------------------------------------------------------------------|
D|-------------------------------------------------------------------------------------------|

e|-------------------------------------------------------------------------------------------|
B|-------------------------------------------------------------------------------------------|
G|-----10----12----10----------10----9h10--10-10--9--9---10-10--9--9-------------------------|
D|-/12----12----12----12--/12-----12-------12-12--10-10--12-12--10-10------------------------|
A|-------------------------------------------------------------------------------------------|
D|-------------------------------------------------------------------------------------------|
---------------
Bridge / Chorus
---------------
Guitar 1
e|-------------------------------------------------------------------------------------------|
B|-------------------------------------------------------------------------------------------|
G|-------------------------------------------------------------------------------------------|
D|-8-8\----------------------10-12-12-12-12--8\----------------------10-12-12-12-12----------|
A|-8-8\--------------5-------10-12-12-12-12--8\--------------5-------10-12-12-12-12----------|
D|-8-8\--7h8-0-7h8-7---8-7-8-10-12-12-12-12--8\--7h8-0-7h8-7---8-7-8-10-12-12-12-12----------|
[ Repeat ] [ Repeat ]
e|-------------------------------------------------------------------------------------------|
B|-------------------------------------------------------------------------------------------|
G|-------------------------------------------------------------------------------------------|
D|-5-5-5-5--3-3-3-3--5-5-5-5-5--3-3-3-3--3-0-3-0-3-5-----------------------------------------|
A|-3-3-3-3--1-1-1-1--3-3-3-3-3--1-1-1-1--3-0-3-0-3-5-----------------------------------------|
D|---------------------------------------3-0-3-0-3-5-----------------------------------------|
---------------
Bridge / Chorus
---------------
Guitar 2
e|-------------------------------------------------------------------------------------------|
B|-------------------------------------------------------------------------------------------|
G|-------10------------------------------------------10--------------------------------------|
D|----10----12~--12p10----10----------------------10----12~--12p10----10---------------------|
A|-12------------------12----12-10-8-5-5---5~--12------------------12----12-10-8-10-8-10-----|
D|---------------------------------------7---------------------------------------------------|

e|-------------------------------------------------------------------------------------------|
B|-------------------------------------------------------------------------------------------|
G|-------------------------------------------------------------------------------------------|
D|-------------------------------------------------------------------------------------------|
A|-7--7-7-7-7-7-7-8-7--7-8-7--5--5-5-5-5-5-5-5-8-7--5-8-7-5--3--3-3-3-3-3-3-3-5p3---0-3-5----|
D|--------------------------------------------------------------------------------5----------|

e|-------------------------------------------------------------------------------------------|
B|-------------------------------------------------------------------------------------------|
G|-------------------------------------------------------------------------------------------|
D|-------------------------------------------------------------------------------------------|
A|-1--1-1-1-1-1------------------------------------------------------------------------------|
D|---------------3-0-3-0-3-5-----------------------------------------------------------------|
---------
Breakdown
---------
Guitar 1
e|-------------------------------------------------------------------------------------------|
B|-------------------------------------------------------------------------------------------|
G|-------------------------------------------------------------------------------------------|
D|-0-----0h3h5-0-------5-3-0-----0h3h5-0-----------3-----------------------------------------|
A|-0-x-x-0h3h5-0-x-x-x-5-3-0-x-x-0h3h5-0-x---0-3-5-------------------------------------------|
D|-0-x-x-0h3h5-0-x-x-x-5-3-0-x-x-0h3h5-0-x-5-------------------------------------------------|

e|-------------------------------------------------------------------------------------------|
B|-------------------------------------------------------------------------------------------|
G|-------------------------------------------------------------------------------------------|
D|-0-----0h3h5-0-------5-3-0-----0h3h5-0-----------------3-------3~--------------------------|
A|-0-x-x-0h3h5-0-x-x-x-5-3-0-x-x-0h3h5-0-x-------0-0h3h5---0h3h5-----------------------------|
D|-0-x-x-0h3h5-0-x-x-x-5-3-0-x-x-0h3h5-0-x-0h3h5---------------------------------------------|
---------
Breakdown
---------
Guitar 2
e|-------------------------------------------------------------------------------------------|
B|----------13----------10-------------------------------------------------------------------|
G|----------10----------10-----------------10------------------------------------------------|
D|-12-12-12----12p10-10-----10-10-10-10-12----12---------------------------------------------|
A|-------------------------------------------------------------------------------------------|
D|-------------------------------------------------------------------------------------------|
[ Repeat ]
e|-------------------------------------------------------------------------------------------|
B|----------13----------10--10-9-10----------------------------------------------------------|
G|----------10----------10----------12----12----10~------------------------------------------|
D|-12-12-12----12p10-10----------------12----12----------------------------------------------|
A|-------------------------------------------------------------------------------------------|
D|-------------------------------------------------------------------------------------------|
[ Repeat ]
---------------------
“Body Burial” Section
---------------------
Guitar 1
e|-------------------------------------------------------------------------------------------|
B|-------------------------------------------------------------------------------------------|
G|-------------------------------------------------------------------------------------------|
D|-0-0-0-0-0-0-0-0---------------------------------------------------------------------------|
A|-0-0-0-0-0-0-0-0-3-2-0-------3-2-0---------------------------------------------------------|
D|-0-0-0-0-0-0-0-0-------3~-0--------3~-0----------------------------------------------------|
. . . . . . . .
---------------------
“Body Burial” Section
---------------------
Guitar 2
e|-------------------------------------------------------------------------------------------|
B|-------------------------------------------------------------------------------------------|
G|-10-10-10-10-10-10-10-12\------------------------------------------------------------------|
D|-10-10-10-10-10-10-10-12\------------------------------------------------------------------|
A|-------------------------------------------------------------------------------------------|
D|-------------------------------------------------------------------------------------------|
---------------------
“Tower March” Section
---------------------
Guitar 1
e|-------------------------------------------------------------------------------------------|
B|-------------------------------------------------------------------------------------------|
G|-------------------------------------------------------------------------------------------|
D|-1-1-1-x-1-1-1-1-x-1-1-1-3/5-0-0-0-x-0-0-0-0-x-0-12\---------------------------------------|
A|-1-1-1-x-1-1-1-1-x-1-1-1-3/5-0-0-0-x-0-0-0-0-x-0-12\---------------------------------------|
D|-1-1-1-x-1-1-1-1-x-1-1-1-3/5-0-0-0-x-0-0-0-0-x-0-12\---------------------------------------|

e|-------------------------------------------------------------------------------------------|
B|-------------------------------------------------------------------------------------------|
G|-------------------------------------------------------------------------------------------|
D|-1-1-1-x-1-1-1-1-x-1-1-1-3/5-0-0-0-x-0-0-0-0-x-0-------------------------------------------|
A|-1-1-1-x-1-1-1-1-x-1-1-1-3/5-0-0-0-x-0-0-0-0-x-0-------------------------------------------|
D|-1-1-1-x-1-1-1-1-x-1-1-1-3/5-0-0-0-x-0-0-0-0-x-0-3-1-0-------------------------------------|

e|-------------------------------------------------------------------------------------------|
B|-------------------------------------------------------------------------------------------|
G|-------------------------------------------------------------------------------------------|
D|---------------------------1-1-------------------------------------------------------------|
A|-1-0---1-0---1-0---1-0---1-1-1-------------------------------------------------------------|
D|-----3-----3-----3-----3---1-1-------------------------------------------------------------|
---------------------
“Tower March” Section
---------------------
Guitar 2 (as played live)
T T T T T T T
e|-h10h13p10p8h10h13p10p8h10h13p10p8h10h13p10p8h10h13p10p8h10h13p10p8h13\--------------------|
B|-------------------------------------------------------------------------------------------|
G|-------------------------------------------------------------------------------------------|
D|-------------------------------------------------------------------------------------------|
A|-------------------------------------------------------------------------------------------|
D|-------------------------------------------------------------------------------------------|
-----------
Guitar Solo
-----------
Claudio Sanchez
e|-------------------------------------------------------------------------------------------|
B|-15~-15-13-15-13-11-13-11-10-11-10----10-13b15-13b15r-10----10-11-10-----------------------|
G|-----------------------------------12--------------------13----------12-12~p10-------------|
D|-------------------------------------------------------------------------------------------|
A|-------------------------------------------------------------------------------------------|
D|-------------------------------------------------------------------------------------------|

e|-------------------------------------------------------------------------------------------|
B|-------------------------------------------------------------------------------------------|
G|-10-12-12b13r12p10----10h12p10-------------------------------------------------------------|
D|-------------------12----------12-10h12p10----10-------------------------------------------|
A|-------------------------------------------12----12-11-10\8----10h12-8~~\------------------|
D|------------------------------------------------------------12-----------------------------|
p.h
e|---------------------------------15b17-17-17-17-17-17-17-17-17r15-15-----------------------|
B|-------------------------------------------------------------------------------------------|
G|-------5-----5-7-7/8-5-8/10-7~\------------------------------------------------------------|
D|-5-7-8---7-8-------------------------------------------------------------------------------|
A|-------------------------------------------------------------------------------------------|
D|-------------------------------------------------------------------------------------------|
p.h p.h
e|-12h13p12h15-12h13p12h15-12h13p12h15-12h13p12h15-12h13p12h15-12h13p12h15-15b17r------------|
B|-------------------------------------------------------------------------------------------|
G|-------------------------------------------------------------------------------------------|
D|-------------------------------------------------------------------------------------------|
A|-------------------------------------------------------------------------------------------|
D|-------------------------------------------------------------------------------------------|

T T T T T T T
e|-12h17p12h13h17p13h15h17p12h13h17p13h15h17p12h13h17p13h15h17-13b15r13\---------------------|
B|-------------------------------------------------------------------------------------------|
G|-------------------------------------------------------------------------------------------|
D|-------------------------------------------------------------------------------------------|
A|-------------------------------------------------------------------------------------------|
D|-------------------------------------------------------------------------------------------|

e|-------------------------------------------------------------------------------------------|
B|-------------------------------------------------------------------------------------------|
G|-10-12-12~-10----10h12p10----------10~--/14-12-14-14/15-14-15-15/17-15-17-17/19-17-19-19~--|
D|--------------12----------12-10h12---------------------------------------------------------|
A|-------------------------------------------------------------------------------------------|
D|-------------------------------------------------------------------------------------------|
p.h
e|-------------------------------------------------------------------------------------------|
B|-20b22r20p18-------------------------------------------------------------------------------|
G|-------------19~~--------------------------------------------------------------------------|
D|-------------------------------------------------------------------------------------------|
A|-------------------------------------------------------------------------------------------|
D|-------------------------------------------------------------------------------------------|
Suggest correction
comments
print report bad tab
13 comments total. Showing first comments.
+1 reply
Joltt 63 wrote on February 12 2008, 06:10 am

Brilliant! Sounds totally perfect to me. Very nice work.

Although, could do with a slight fix with the placings of the P.H but it's not hard to work out.

5*****!!

+1 reply
Fatty Matty 10 wrote on February 13 2008, 08:10 pm

Damn near perfect, only one or two notes off througout the whole thing. Much, much better than the other dude's(Thursdae). Well done lad. 5

+1 reply
Strat Master 10 wrote on March 14 2008, 12:54 pm

Absolutly beautiful! I've been waiting FOREVER so someone to come up with a Gravemakers tab like this!

guest
You may want to rate the tab now too:
select rating
Please do not post tabs as comments. Select "correction" instead!