Oops, an error
Loading. Please wait.

Here We Are Juggernaut bass

version 1
version 1

Whole song

Interactive

8,047 views 1 this week
4 commentsread comments
1 2 3 4 5
x 3
add to favorites
×
Save as Personal and add changes to this tab that will be seen only by you. Learn more ›
×
You can save this tab as Personal to edit and correct it or add notes. All changes will be seen only by you. Learn more »
launch autoscroll
font size
0
reset
guitar tuner
edit
Autoscroll
slow
fast
+/-
esc
set tempo
stop
Author
Difficulty
Here We Are Juggernaut
Coheed and Cambria

Tabbed by: fender4string

Tuning: Standard


There is a version of this that appears in a guitar pro file
on the site but I felt it was a little inaccurate (just in terms
of the "little" stuff like fills)that I tried to improve upon.

I feel like this tab is probably 95% accurate with the only issues
being the exact fills played in the bridge (though the ones tabbed
are very close)

Enjoy guys/gals and please rate whatever you feel it deserves!

**I edited the tab as I made a minor mistake that I'm sure people picked up
on and  corrected.


Intro/Verse
G|------------------------------|
D|------2---------------2-4-----|
A|-2-44---44-2-44-----4-----4---|
E|----------------2-0-----------|

Chorus 
G|----------2---2-11---------------2-----2-11------|
D|------222--444-----4-2-------222---444-----4-2---|
A|-0000-------------------0000---------------------|
E|-------------------------------------------------|

G|----------2-----2-11-----------------------------|
D|------222---444------4-2-------------------------|
A|-------------------------------------------------|
E|-0000--------------------0000-2222-4444-/7777----|

G|----------2---2-11---------------2-----2-11------|
D|------222--444-----4-2-------222---444-----4-2---|
A|-0000-------------------0000---------------------|
E|-------------------------------------------------|

Verse (no variations)

Chorus (no variations)


Bridge (This is where the bass really gets sweet :D.
And it was a b***h to attempt to get it close to 100% lol)

G|------------------------------------------------------------------------------|
D|----------------------44---------------22--44--66--77--99--11-11--11/13-13/14-|
A|-44444444-4-4-6/7-2222--22-2-2-2/4-0000--00--00--00--00--00-----00-----0------|
E|---------4----------------2---------------------------------------------------|

G|-------------------------------------------------------------------------------|
D|----------------------------------------22--44--66--77--99--11-11--11/13-13/14-|
A|-4444444-4h6p4-6/7-2222222--2-2-2/4-0000--00--00--00--00--00-----00-----0------|
E|--------4-----------------2----------------------------------------------------|
As a quick note, I thought that I kept hearing the B notes (2 on A) being played
as B power chord arpeggios.  I kept it simple as I wasn't 100% that Mic was
actually doing this)

G|-------------------4--6--4--------------------4----|
D|------------6---4----6----4-------4h6-4h6-4-2------|
A|-444444-7-4------7----------22222------------------|
E|---------------------------------------------------|

G|---------------------------------------------|
D|-----22--44--66--77--99--11-11--11/13-13/14--|
A|-0000--00--00--00--00--00-----00-----0-------|
E|---------------------------------------------|

G|---------------------------------------------------|
D|-----2-2--4-4--6-6--7-6-7------------1-1-2---------|
A|-4-4--4----4----4--------7------2-2---2------------|
E|--------------------------5-0-5--------------------|

G|---------------------------------------------------|
D|--------------------------------------1-2----------|
A|--4-4--6-4-6--7-6-7--6\4---------------2-----------|
E|-------------------------55--5--55-5---------------|

G|---------------------------------------------------|
D|-----2-2--4-4--6-6--7-6-7------------1-1-2---------|
A|-4-4--4----4----4--------7------2-2---2------------|
E|--------------------------5-0-5--------------------|

The strumming of the 7's here is touchy so be sure to listen
carefully.  There are a lot of triplets thrown into
the pattern.  The 4's are just straight eigth notes.
G|-------------------------------------|
D|------------------7777777777777777---|
A|-4444444444444444--------------------|
E|-------------------------------------|

Chorus x1


Outro (the 11's are seperated for clarity)
G|-----------------------------------------------|
D|-----22--44--66--77--99--11-11--13-13-13\------|
A|-0000--00--00--00--00--00-----00---------------|
E|-----------------------------------------------|

G|-----------------------------------------------|
D|-----22--44--66--77--99--11-11--13-13-13\------|
A|-0000--00--00--00--00--00-----00---------------|
E|-----------------------------------------------|

G|-----------------------------------------------|
D|-----22--44--66--77--99--11-11--13-13-13\------|
A|-0000--00--00--00--00--00-----00---------------|
E|------------------------------------------0----|



| /  slide up
| \  slide down
| h  hammer-on
| p  pull-off
| ~  vibrato
| +  harmonic
| x  Mute note
=================================================================

            
            
Suggest correction
Creating personal tab
Creating personal tab
You can edit any tab online and save it as your Personal.

You can edit, replace or remove any tab part or add personal notes – all changes will be seen only by you.

Personal tabs can be accessed anytime from any device, even offline.
Learn more »
Give kudos to tab author, rate the tab!
1 2 3 4 5
comments
print report bad tab
4 comments total. Showing first comments.
+1 reply
fender4string 569 Jun 08, 2010 06:51 PM

Ok I'm stupid. Not quite sure what I was hearing when I originally tabbed this but the verse goes like this:

G------------------------------
D------2---------------2-4-----
A-2-44---44-2-44------4----4---
E----------------2-0-----------

0 reply
fender4string 569 Jun 16, 2010 10:55 AM

If anyone knows how to edit the actual tab (to the correction posted under comments previously) please let me know as I'd rather have the tab be accurate than have people reading the comment to play it correctly.

0 reply
TrumpetHero2010 10 Jun 24, 2010 01:50 PM

Dude, this is great! I've been waiting for this tab since the album came out. Thanks!

guest
You may want to rate the tab now too:
select rating
Wanna post a correction for this tab? Suggest correction