Oops, an error
Loading. Please wait.

In Keeping Secrets Of Silent Earth 3 Tab

version 2
version 2

Whole song

Interactive

6,025 views 3 this week
3 commentsread comments
1 2 3 4 5
accurate
x 7
add to favorites
launch autoscroll
font size
0
reset
how to read this tab
guitar tuner
Tab Pro tools
  • play this tab
  • loop segment
  • change instrument
  • show fretboard
  • metronome
×
Best way to learn
"In Keeping Secrets Of Silent Earth 3"
Autoscroll
slow
fast
+/-
esc
set tempo
stop
Contributor
#--------------------------------PLEASE NOTE--------------------------------#
#This file is the author's own work and represents their interpretation of the#
#song. You may only use this file for private study, scholarship, or research.#
#---------------------------------------------------------------------------#

Artist: Coheed & Cambria
Song: In Keeping Secrets of Silent Earth: 3
Album: In Keeping Secrets of Silent Earth: 3


Tabbed By: Marty Silbiger
email me at slodeth@iname.com with questions, comments, etc.


This tab is loosely based on a tab I found that had no name attached to
it...I found a few mistakes and decided to fix it up a bit.  Well, it
turned into a complete overhaul, and then I saw Coheed live and had to
overhaul most of my own tabs.  So, now these tabs should be very accurate.
I don't know much about the band's setup, but I do know Claudio uses a
very 80's-metal-looking white Explorer, and both guitarists have killer
tone and sustain.  On with the tabs...



s=slide
b=bend
h=hammer on





INTRO...
You could also play this riff on the A and D strings, but I saw them
live and the guitarist definitely played this part on E and A.  I
couldn't see/remember much of it, but I've done the best I can:
2x
e-------------------------------|------------------------------------------|
B-------------------------------|------------------------------------------|
G-------------------------------|------------------------------------------|
D-------------------------------|------------------------------------------|
A----11-11---11-11---11---12-11-|---11-11---11---11-12-14--12-11---11-12---|
E--9------9-------9----9-------9|-0-------0----0-------------------------0-|


e-------------------------------------------------------------------------|
B-------------------------------------------------------------------------|
G-------------------------------------------------------------------------|
D---------------------------------------------------------------9---------|
A-----9-9-9---9-9----9----9h11-9---7p0----------7-7-------7---------------|
E-0h7-------7-----7-----7----------------0h5-5--------5-------------------|


2nd guitar, 2nd intro rep.: this part is probably played with an 
eBow.  (Update: I don't think so - they just have a rediculous amount
of sustain on those guitars.)  Also, use a good amount of vibrato, 
esp. on the last note.
e---------------------------|--------------------------------------|
B---------------------------|--------------------------------------|
G---9---------8-------6-8-9-|-11------------13---------11--9--8----|
D---------------------------|--------------------------------------|
A---------------------------|--------------------------------------|
E---------------------------|--------------------------------------|

e---------------------------|--------------------------------------|
B---------------------------|--------------------------------------|
G--9---8---6---8------6-8-9-|-11------------13---------------------|
D---------------------------|--------------------------------------|
A---------------------------|--------------------------------------|
E---------------------------|--------------------------------------|


x2
e----------------------------------------------------------|
B----------------------------------------------------------|
G--9-9-9--8-8-8--9-9-9--8-8-8--9-9-9--8-8-8---11---9---6---|
D----------------------------------------------------------|
A--7-7-7--6-6-6--7-7-7--6-6-6--7-7-7--6-6-6----9---7---4---|
E----------------------------------------------------------|


e--------------------------|---------------------------|
B--------------------------|---------------------------|
G--------------------------|---------------------------|
D-----------------6--------|---9-----------------------|
A---------6-7-9------9--7--|------7---6---7---6--------|
E--6-7-9-------------------|-----------------------7---|

e------7-----7-----7-----7-|---------------------------|
B--------------------------|------9-----9-----9-----9--|
G--6-6---8-6---8-6---8-6---|--6-6---8-6---8-6---8-6----|
D--------------------------|---------------------------|
A--------------------------|---------------------------|
E-(9)----------------------|---------------------------|


verse...use heavy palm muting.  Every fourth time you play this
riff, strum B5 and A5 six times instead of what's written -
listen to the CD for exact timing.
e--------------------------------------------------|
B--------------------------------------------------|
G---6-6-----------------------------------(8-9-8)--|
D---6-6------6---------9-9--9-9-9----7-7-----------|
A---4-4----7---7-6-6h7-9-9--9-9-9----7-7---6-7-6---|
E----------------------7-7--7-7-7----5-5-----------|


pre-chorus
3x
e------------------------|--------------------------|
B------------------------|--------------------------|
G------------------------|--------------------------|
D-4--4-4---4-4---4-4--4--|--11---6----7---9--x-x----|
A-4--4-4---4-4---4-4--4--|--11---6----7---9--x-x----|
E-2--0-2---0-2---0-2--0--|--9----4----5---7--x-x----|

then on the last time       strum 6x each
e------------------------|--------------------------|
B------------------------|--------------------------|
G------------------------|--------------------------|
D-4--4-4---4-4---4-4--4--|--[6]---------[7]---------|
A-4--4-4---4-4---4-4--4--|--[6]---------[7]---------|
E-2--0-2---0-2---0-2--0--|--[4]---------[5]---------|



CHORUS: play this twice through.  Brackets represent repeated
rhythm chords - listen to CD for exact strumming.


Guitar 1
e-----------|-----------------------|------------|------------|
B-----------|-----------------------|------------|------------|
G-----------|-----------------------|------------|------------|
D--[11]-----|---[2]-----------------|---[9]------|-[7-x-x]----|
A--[11]-----|---[2]-----------------|---[9]------|-[7-x-x]----|
E--[9]------|---[0]-----------------|---[7]------|-[5-x-x]----|

Guitar 2
e-----------|-----------------------|------------|------------|
B-----------|-----------------------|------------|------------|
G-----------|--13--13\11-11\9-9/11--|------------|------------|
D-----------|-----------------------|------------|------------|
A-----------|--11--11\9---9\7-7/9---|------------|------------|
E-----------|-----------------------|------------|------------|




I couldn't figure out much of the bridge part(it starts with E5
and mixes in a few riffs here and there, most of it's not too hard
but there are a bunch of notes buried under the vocals)
but anyway, here's the riff right after the line "I love you too"...
BRIDGE RIFF:
3x                         last time
e-----------------------||--------------------------|---------------|
B-----------------------||-------------8------------|---------------|
G-------4--5--7--4--5---||------9--10-----10--9--7--|----9----7-9-7-|
D-----------------------||---7----------------------|-10---10-------|
A--(7)------------------||--------------------------|---------------|
E-----------------------||--------------------------|---------------|
comments
print report bad tab
3 comments total.
0 reply
Bleed Black wrote on May 23 2004, 12:00 am

Awesome Tab!...well Done!

0 reply
poprocksandsock wrote on May 31 2004, 12:00 am

this is way better than ver 1, b/c its easier and you got reference to the band themself. great job!

0 reply
DreamScaperX wrote on September 25 2004, 12:00 am

the closest one here...! good tabs but far from perfect...

I want to post or [tab]
guest
You may want to rate the tab now too:
select rating
Please do not post tabs as comments. Select "correction" instead!