Oops, an error
Loading. Please wait.

In Keeping Secrets Of Silent Earth 3 bass

version 4
version 4

Whole song

Interactive

2,084 views 1 this week
1 commentread comment
1 2 3 4 5
2 more votes to show rating
add to favorites
×
Save as Personal and add changes to this tab that will be seen only by you. Learn more ›
×
You can save this tab as Personal to edit and correct it or add notes. All changes will be seen only by you. Learn more »
launch autoscroll
font size
0
reset
guitar tuner
edit
Autoscroll
slow
fast
+/-
esc
set tempo
stop
Difficulty
starting w/ guitar dont play


Verse
|----------------------------------|
|----------------------------------|
|----------------------------------|
|3-3-3-3-3-3-3-3-3-3-3-3-3-3-3-3-3-|

|--------------------------------------|
|--------------------------------------|
|--------------------------------------|
|0--0-0-0--0-0-0---0-0-0---0-0-0-0-0-0-|

|----------------------------|
|2-22-22222-222-222-22222---2|
|----------------------------|
|----------------------------|

|-----------------------|
|---35-35-35-35-35-35-35|
|35---------------------|
|-----------------------|

riff
|----------|
|-----6----|
|44-77-767-|
|----------|

chorus
|--------------------|
|--------------------|
|-----------4-0-2----|
|22-22-22-22-4-------|

2nd chorus
|------------------------|
|------------------------|
|------------------------|
|22-22-22-22-444444555555|

riff 2
|-----------------------------|
|-----------------------------|
|-----------------------------|
|3-3-3-3-3-3-3-3-3-3-3-3-3-3-3|

|--------------------|
|--------------------|
|--------------------|
|0-0-0-0-0-0-0-0-0-0-|

|--------------------------|
|--------------------------|
|--------------------------|
|5-5-5-5-5-5-5-5-5-5-5-5-5-|

|------------------|
|------------------|
|35-35-35-35-35-35-|
|------------------|

verse 2
|---------|
|---------|x3
|---2-3>--|
|1-1------|

guitar part
|-----------|
|-----------|
|-----------|
|-----------|

verse 3
|-----------------|
|-----------------|
|----3-4-5--------|
|-----------------|

opening chorus
|----------------------|
|----------------------|
|4-4-4-4-4-4-4-4-4-4-4-|
|----------------------|



play in order
(x1)
riff(x8)
chorus(x3)
2nd chorus(x1) 
riff(x8)
chorus(x3)
2nd chorus(x1)
riff 2(x2)
verse 2(x3)
verse 3(x5)-now watch this part and listen to the song because guitar plays then you cut into some parts

guitar start then after the first part start w/ the
opening chorus 
verse(x2)
riff 2(x2)

            
            
Suggest correction
Creating personal tab
Creating personal tab
You can edit any tab online and save it as your Personal.

You can edit, replace or remove any tab part or add personal notes – all changes will be seen only by you.

Personal tabs can be accessed anytime from any device, even offline.
Learn more »
Give kudos to tab author, rate the tab!
1 2 3 4 5
comments
print report bad tab
1 comment total.
0 reply
beano1 31 Nov 03, 2011 10:21 AM

What song are you listening to, because this is *way* off. Probably one of the worst tabs I've seen for any song.

guest
Wanna post a correction for this tab? Suggest correction