Oops, an error
Loading. Please wait.

In Keeping Secrets Of Silent Earth 3 tab

version 7
version 7

Whole song

Interactive

64 views 18 this week
no commentswrite comment
1 2 3 4 5
3 more votes to show rating
add to favorites
×
Save as Personal and add changes to this tab that will be seen only by you. Learn more ›
×
You can save this tab as Personal to edit and correct it or add notes. All changes will be seen only by you. Learn more »
launch autoscroll
font size
0
reset
how to read this tab
guitar tuner
edit
Autoscroll
slow
fast
+/-
esc
set tempo
stop
Author
Difficulty
intermediate
About this tab version
Lead and Rhythm guitar tabbed out accordingly. Was this info helpful? Yes No
Artist: Coheed & Cambria
Song: In Keeping Secrets of Silent Earth: 3
Album: In Keeping Secrets of Silent Earth: 3

[INTRO]
 Claudio
e|------------------------------------|------------------------------------------|
B|------------------------------------|------------------------------------------|
G|------------------------------------|------------------------------------------|
D|------------------------------------|------------------------------------------|
A|----11-11----11-11----11----12-11---|---11-11----11----11-12-14-12-11--11-12-0-|
E|--9--------9--------9-----9-------9-|-0--------0-----0-------------------------|

e|--------------------------------|---------------------|
B|--------------------------------|---------------------|
G|--------------------------------|---------------------|
D|--------------------------------|------------------9~-|
A|-----9-9-9---9-9----9----9/11-7-|-------7-7-----7-----|
E|-0h7-------7-----7-----7--------|--0h5-------5--------|

[Claudio]
e|-------------------------------|---------------------------------------|
B|-------------------------------|---------------------------------------|
G|-------------------------------|---------------------------------------|
D|-------------------------------|---------------------------------------|
A|----11-11---11-11---11---12-11-|---11-11---11---11-12-14-12-11-11h12p0-|
E|--9------9-------9----9-------9|-0-------0----0------------------------|

[Travis]
e|----------------------------------------------------------------------|
B|----------------------------------------------------------------------|
G|-9~~~~~~~~~~~~--8~~~~~--6-8/9--11~~~~~~~~~~~~--13~~~~~~~~--11~~-9/8-6-|
D|----------------------------------------------------------------------|
A|----------------------------------------------------------------------|
E|----------------------------------------------------------------------|

[Claudio]
e|----------------------------------------------------|
B|----------------------------------------------------|
G|----------------------------------------------------|
D|-------------------------------------------------9~-|
A|-----9-9-9---9-9----9----9/11-7-------7-7-----7-----|
E|-0h7-------7-----7-----7---------0h5-------5--------|

[Travis]
e|---------------------------------------------------|
B|---------------------------------------------------|
G|-9~~--8~~-6/8~~~~~~~~~~--6-8/9--11~~~~~~~~~~--13tr-|
D|---------------------------------------------------|
A|---------------------------------------------------|
E|---------------------------------------------------|

[Claudio]
e|-------------------------------------------------------------------------|
B|-------------------------------------------------------------------------|
G|-------------------------------------------------------------------------|
D|-11-11-11-11-11-11-11-11-11-11-11-11-11-11-11-11-11-11-11-11-11-11-11-11-|
A|-11-11-11-11-11-11-11-11-11-11-11-11-11-11-11-11-11-11-11-11-11-11-11-11-|
E|-9--9--9--9--9--9--9--9--9--9--9--9--9--9--9--9--9--9--9--9--9--9--9--9--|

[Travis]
e|--------------------------------------------------------------------|
B|--------------------------------------------------------------------|
G|-9--9--9--8--8--8--9--9--9--8--8--8--9--9--9--8--8--8---11---9---6--|
D|-6--6--6--6--6--6--6--6--6--6--6--6--6--6--6--6--6--6---6----6---6--|
A|--------------------------------------------------------------------|
E|--------------------------------------------------------------------|

[Claudio]
      PM--------|    PM--------|    PM--------|    PM------------|
e|---------------------------------------------------------------|
B|---------------------------------------------------------------|
G|---------------------------------------------------------------|
D|---------------------------------------------------------------|
A|-11-11-11-11-11-11-11-11-11-11-11-11-11-11-11-11-11-11-11-11---|
E|-0--0--0--0--0--0--0--0--0--0--0--0--0--0--0--0--0--0--0--0----|

[Travis]
e|--------------------------------------------------------------|
B|--------------------------------------------------------------|
G|-9--9--9--8--8--8--9--9--9--8--8--8--9--9--9--8--8--8--11-9-6-|
D|-6--6--6--6--6--6--6--6--6--6--6--6--6--6--6--6--6--6--6--6-6-|
A|--------------------------------------------------------------|
E|--------------------------------------------------------------|

[Claudio]
e|-------------------------------------------------|
B|-------------------------------------------------|
G|-------------------------------------------------|
D|-------------------------------------------------|
A|-9-9-9-9-9-9-9-9-9-9-9-9-9-9-9-9-9-9-9-9-9-9-9-9-|
E|-7-7-7-7-7-7-7-7-7-7-7-7-7-7-7-7-7-7-7-7-7-7-7-7-|

[Travis]
e|----------------------------------------|
B|----------------------------------------|
G|----------------------------------------|
D|-------------6--------9-----------------|
A|-------6-7-9----9--7-----7--6-----7--6--|
E|-6-7-9-------------------------7--------|

[Claudio]
    PM-|  PM-|  PM-|  PM-|  PM-|  PM-|  PM-|  PM-----|
e|---------------------------------------------------|
B|---------------------------------------------------|
G|---------------------------------------------------|
D|-7-7-7-7-7-7-7-7-7-7-7-7-7-7-7-7-7-7-7-7-7-7-7-7---|
A|-7-7-7-7-7-7-7-7-7-7-7-7-7-7-7-7-7-7-7-7-7-7-7-7---|
E|-5-5-5-5-5-5-5-5-5-5-5-5-5-5-5-5-5-5-5-5-5-5-5-5---|

[Travis]
  PM-|    PM    PM    PM  PM-|    PM    PM    PM
e|-----7-----7-----7-----7-----4-----4-----4-----4-|
B|-------4-----4-----4-----------4-----4-----4-----|
G|-6-6-----6-----6-----6---6-6-----6-----6-----6---|
D|-------------------------------------------------|
A|-------------------------------------------------|
E|-------------------------------------------------|

[VERSE 1]
Claudio
  PM-|                PM--------------------| PM-|                PM--------------------|
e|-------------------------------------------|--------------------------------------------|
B|-------------------------------------------|--------------------------------------------|
G|-------------------------------------------|--------------------------------------------|
D|----------6--------------------------------|----------6---------------------------------|
A|--------7---7-6-6h7------------------------|--------7---7-6-6h7-------------------------|
E|-9-9--9-------------7-7--7-7-7--5-5--5p9p0-|-9-9--9-------------7-7--7-7-7--5-5--5p9p0--|

[Travis]
  PM-|                PM------------|         PM-|                PM--------------------|
e|-------------------------------------------|--------------------------------------------|
B|-------------------------------------------|--------------------------------------------|
G|-------------------------------------8/9/8-|-------------------------------------8/9/8--|
D|----------6--------------------------X-X-X-|----------6--------------------------X-X-X--|
A|--------7---7-6-6h7------------------6/7/6-|--------7---7-6-6h7------------------6/7/6--|
E|-9-9--9-------------7-7--7-7-7--5-5--------|-9-9--9-------------7-7--7-7-7--5-5---------|

[Claudio]
  PM-|                PM--------------------| PM-|                PM--------------------|
e|-------------------------------------------|--------------------------------------------|
B|-------------------------------------------|--------------------------------------------|
G|-------------------------------------------|--------------------------------------------|
D|----------6--------------------------------|----------6---------------------------------|
A|--------7---7-6-6h7------------------------|--------7---7-6-6h7-------------------------|
E|-9-9--9-------------7-7--7-7-7--5-5--5p9p0-|-9-9--9-------------7-7--7-7-7--5-5--5p9p0--|

[Travis]
  PM-|                PM------------|         PM-|                PM--------------------|
e|-------------------------------------------|--------------------------------------------|
B|-------------------------------------------|--------------------------------------------|
G|-------------------------------------8/9/8-|-------------------------------------8/9/8--|
D|----------6--------------------------X-X-X-|----------6--------------------------X-X-X--|
A|--------7---7-6-6h7------------------6/7/6-|--------7---7-6-6h7------------------6/7/6--|
E|-9-9--9-------------7-7--7-7-7--5-5--------|-9-9--9-------------7-7--7-7-7--5-5---------|

[Claudio]
  PM-|                PM----------------------|  PM-|                PM-------------------|
e|---------------------------------------------|--------------------------------------------|
B|---------------------------------------------|--------------------------------------------|
G|---------------------------------------------|--------------------------------------------|
D|----------6----------------------------------|----------6---------------------------------|
A|--------7---7-6-6h7--------------------------|--------7---7-6-6h7-------------------------|
E|-9-9--9------------7-7-7-7-7-7-9-9-9-9-5p9p0-|-9-9--9-------------7-7--7-7-7--9-9--5p9p0--|

[Travis]
  PM-|                PM--------------|          PM-|               PM--------------------|
e|---------------------------------------------|--------------------------------------------|
B|---------------------------------------------|--------------------------------------------|
G|---------------------------------------8/9/8-|-------------------------------------8/9/8--|
D|----------6----------------------------X-X-X-|----------6--------------------------X-X-X--|
A|--------7---7-6-6h7--------------------6/7/6-|--------7---7-6-6h7------------------6/7/6--|
E|-9-9--9-------------7-7-7-7-7-7-5-5-5--------|-9-9--9-------------7-7--7-7-7--5-5---------|

[Claudio and Travis]
  PM-|                PM----------------------|
e|----------------------------------------------|
B|----------------------------------------------|
G|----------------------------------------------|
D|----------6-----------------------------------|
A|--------7---7-6-6h7---------------------------|
E|-9-9--9-------------7-7-7-7-7-7-5-5-5-0-------|


[PRE-CHORUS](Claudio and Travis)

      PM    PM    PM             PM----|
e|---------------------------------------|X2
B|---------------------------------------|
G|---------------------------------------|
D|-----------------------6---------------|
A|-4-4-0-4-4-0-4-4-0-4-4-4-6-7-9---------|
E|-2-2-0-2-2-0-2-2-0-2-2---4-5-7-4-5-4-2-|

      PM    PM    PM             PM----|
e|---------------------------------------|---------------------------------|
B|---------------------------------------|---------------------------------|
G|---------------------------------------|---------------------------------|
D|-----------------------6---------------|---------------------------------|
A|-4-4-0-4-4-0-4-4-0-4-4-4-6-7-9---------|-6-6-6-6-6-6-6-6-7-7-7-7-7-7-7-7-|
E|-2-2-0-2-2-0-2-2-0-2-2---4-5-7-4-5-4-2-|-4-4-4-4-4-4-4-4-5-5-5-5-5-5-5-5-|

[CHORUS X2]
[Claudio and Travis]
e|-------------------------------------------------------------------------|
B|-------------------------------------------------------------------------|
G|-------------------------------------------------------------------------|
D|-11-11-11-11-11-11-11-11-11-11-11-11-11-11-11-11-11-11-11-11-11-11-11-11-|
A|-11-11-11-11-11-11-11-11-11-11-11-11-11-11-11-11-11-11-11-11-11-11-11-11-|
E|-9--9--9--9--9--9--9--9--9--9--9--9--9--9--9--9--9--9--9--9--9--9--9--9--|

[Claudio]
      PM--------|    PM--------|    PM--------|    PM--------------|
e|-------------------------------------------------------------------|
B|-------------------------------------------------------------------|
G|-------------------------------------------------------------------|
D|-------------------------------------------------------------------|
A|-11-11-11-11-11-11-11-11-11-11-11-11-11-11-11-11-11-11-11-11-------|
E|-0--0--0--0--0--0--0--0--0--0--0--0--0--0--0--0--0--0--0--0--------|

[Travis]
e|--------------------------------------------------------------|
B|--------------------------------------------------------------|
G|-13-13--------13/11-----------11/9------------9/11-11-11-11---|
D|--x--x--------x--x-------------x-x------------x--x--x--x--x---|
A|-11-11--------11/9-------------9/7------------7/-9--9--9--9---|
E|--------------------0--0--0--0-----0--0--0--0-----------------|

[Claudio and Travis]                                   PM-|  PM-|  PM-|  PM-|  PM-|  PM-|  PM-|  PM--|
e|-------------------------------------------------|--------------------------------------------------|
B|-------------------------------------------------|--------------------------------------------------|
G|-------------------------------------------------|--------------------------------------------------|
D|-------------------------------------------------|-7-7-7-7-7-7-7-7-7-7-7-7-7-7-7-7-7-7-7-7-7-7-7-7--|
A|-9-9-9-9-9-9-9-9-9-9-9-9-9-9-9-9-9-9-9-9-9-9-9-9-|-7-7-7-7-7-7-7-7-7-7-7-7-7-7-7-7-7-7-7-7-7-7-7-7--|
E|-7-7-7-7-7-7-7-7-7-7-7-7-7-7-7-7-7-7-7-7-7-7-7-7-|-5-5-5-5-5-5-5-5-5-5-5-5-5-5-5-5-5-5-5-5-5-5-5-5--|

[INTERLUDE 1]
(Claudio)
e|--------------------------------------------------------------------|
B|--------------------------------------------------------------------|
G|--------------------------------------------------------------------|
D|--------------------------------------------------2-5-0-5-4-2-------|
A|-2-2-2-2h3-[2]-2-2-2-2h3-[5]-2-2-2-2h3-[2]------3-------------5-3-2-|
E|-0-0-----------0-0-----------0-0------------2-5---------------------|

[Travis]
e|--------------------------------------------------------------------|
B|--------------------------------------------------5-8---8-7-5-------|
G|------------------------------------------------5-----7-------7-5-4-|
D|--------------------------------------------4-7---------------------|
A|-2-2-2-2h3-[2]-2-2-2-2h3-[5]-2-2-2-2h3-[2]--------------------------|
E|-0-0-----------0-0-----------0-0------------------------------------|

[INTERLUDE 3]
(Claudio)
e|---------------------------------------------------------------------------------------|
B|---------------------------------------------------------------------------------------|
G|-------------------------------------------------------12------------------------------|
D|----------12----------------12-------------------14-15----14-14p0----14----12-14-12p0--|
A|----14-15----14-15----14-15----14-15----14-15-12------------------15----15-------------|
E|-12----------------12----------------12------------------------------------------------|

[Travis]
e|-10-10-10-10-10-10-10-|
B|-8--8--8--8--8--8--8--|
G|-0--0--0--0--0--0--0--|
D|----------------------|
A|----------------------|
E|----------------------|

[Claudio](x3)
e|---------------------------------------------------------------------------------------|
B|---------------------------------------------------------------------------------------|
G|-------------------------------------------------------12------------------------------|
D|----------12----------------12-------------------14-15----14-14p0----14----12-14-12p0--|
A|----14-15----14-15----14-15----14-15----14-15-12------------------15----15-------------|
E|-12----------------12----------------12------------------------------------------------|

[Travis](x3)
e|-10-----10-----12-----10-----10-----10-8h7---7-----8p7---10p7---12p7---10p7---|
B|----8-8----8-8----8-8----8-8----8-8--------8---8-8-----8------8------8------8-|
G|------------------------------------------------------------------------------|
D|------------------------------------------------------------------------------|
A|------------------------------------------------------------------------------|
E|------------------------------------------------------------------------------|

[Travis](Cont')
e|-10-10-10-10-10-10-10-|
B|-8--8--8--8--8--8--8--|
G|-0--0--0--0--0--0--0--|
D|----------------------|
A|----------------------|
E|----------------------|

[INTERLUDE 3]
[Claudio]
e|-----------------------------|-----------------------------|-----------------------------|
B|-----------------------------|-----------------------------|-----------------------------|
G|-----------------------0-----|-----------------------0-----|-----------------------0-----|
D|-----5-5-3---2-------0-------|-----5-5-3---2-------0-------|-----5-5-3---2-------0-------|
A|---3-------5---3---5-----5-7-|---3-------5---3---5-----5-7-|---3-------5---3---5-----5-7-|
E|-1---------------3-----------|-1---------------3-----------|-1---------------3-----------|

[Travis]
e|-----------------------5-3---|-----------3-1---------5-3---|-----------3-----------5-3---|
B|-----------------------3-3---|-3-------------4-0-----3-3---|--3----------3-0-------3-3---|
G|-----------------------------|-----------------------------|-----------------0-----------|
D|-----------------------------|-----------------------------|-----------------------------|
A|-----------------------------|-----------------------------|-----------------------------|
E|-----------------------------|-----------------------------|-----------------------------|

[Claudio]
e|-----------------------------|
B|-----------------------------|
G|-----------------------0-----|
D|-----5-5-3---2-------0-------|
A|---3-------5---3---5-----5-7-|
E|-1---------------3-----------|

[Travis]
e|-----------3-----------5-3---|
B|--3----------3-0-------3-3---|
G|-----------------------------|
D|-----------------------------|
A|-----------------------------|
E|-----------------------------|

[INTERLUDE 4]
(Claudio)
e|-------------------------------------------------------|
B|-------------------------------------------------------|
G|-------------------------------------------------------|
D|-------------------------------------------------------|
A|-7--8--7-----3-5-3-2--7--7--8-----3-2-3-[5]--8-7-5-----|
E|-5-------5/--1--------5-------5/--1----------------8-7-|

[Travis]
e|-0-----------0-3-1----0-----------0----------3-----1---|
B|-0-----------1-1-3----0-----------1----------1-----3---|
G|-5--9--14----2-2-4----5--9--14----2----------2-----4---|
D|-7--10-15----3--------7--10-15----3--------------------|
A|-0--------------------0--------------------------------|
E|-------------------------------------------------------|

[FAKE OUTRO]
[Claudio]
e|-----------------------------------------------------|
B|-----------------------------------------------------|
G|-----------------------------------------------------|
D|-----------------------------------------------------|
A|-7~~~~~~~~~~~~~~-------------------------------------|
E|-5~~~~~~~~~~~~~~-------------------------------------|

[Travis]
e|----------------0---3p0--------------------------|
B|----------------1-------3p1-0h1p0-----0h1p0------|
G|----9-----14----2-----------------2---------2----|
D|----10----15----3-------------------3---------3--|
A|-------------------------------------------------|
E|-------------------------------------------------|

[Hold]
e|-------|
B|-------|
G|-------|
D|-------|
A|--7~~~-|
E|--5~~~-|

[INTRO REPRISE]
(Claudio)
e|-------------------------------|---------------------------------------|
B|-------------------------------|---------------------------------------|
G|-------------------------------|---------------------------------------|
D|-------------------------------|---------------------------------------|
A|----11-11---11-11---11---12-11-|---11-11---11---11-12-14-12-11-11-12-0-|
E|--9------9-------9----9-------9|-0-------0----0------------------------|

[Travis]
e|----------------------------------------------------------------------|
B|----------------------------------------------------------------------|
G|-9~~~~~~~~~~~~--8~~~~~--6-8/9--11~~~~~~~~~~~~--13~~~~~~~~--11~~-9/8-6-|
D|----------------------------------------------------------------------|
A|----------------------------------------------------------------------|
E|----------------------------------------------------------------------|

[Claudio]
e|----------------------------------------------------|
B|----------------------------------------------------|
G|----------------------------------------------------|
D|-------------------------------------------------9~-|
A|-----9-9-9---9-9----9----9/11-7-------7-7-----7-----|
E|-0h7-------7-----7-----7---------0h5-------5--------|

[Travis]
e|---------------------------------------------------|
B|---------------------------------------------------|
G|-9~~--8~~-6/8~~~~~~~~~~--6-8/9--11~~~~~~~~~~--13tr-|
D|---------------------------------------------------|
A|---------------------------------------------------|
E|---------------------------------------------------|

[CHORUS x4]

[Finish on]
e|------|
B|------|
G|------|
D|------|
A|--11--|
E|--9---|

************************************

| ~    Vibrato
| /    Slide up
| h    Hammer-on
| p    Pull-off
| tr   Trill
| PM   Palm mute
| x    Dead note

************************************

            
            
Suggest correction
Creating personal tab
Creating personal tab
You can edit any tab online and save it as your Personal.

You can edit, replace or remove any tab part or add personal notes – all changes will be seen only by you.

Personal tabs can be accessed anytime from any device, even offline.
Learn more »
Give kudos to tab author, rate the tab!
1 2 3 4 5
comments
print report bad tab
guest
You may want to rate the tab now too:
select rating
Wanna post a correction for this tab? Suggest correction