Oops, an error
Loading. Please wait.

In The Flame Of Error Tab

version 1
version 1

Whole song

Interactive

1,054 views 1 this week
no commentswrite comment
1 2 3 4 5
excellent!
x 2
add to favorites
launch autoscroll
font size
0
reset
how to read this tab
guitar tuner
Tab Pro tools
  • play this tab
  • loop segment
  • change instrument
  • show fretboard
  • metronome
Autoscroll
slow
fast
+/-
esc
set tempo
stop
Contributor
Difficulty
Tuning
intermediate
D# G# C# F# A# D#
Artist: Coheed and Cambria
Track: "In the Flame of Error"
As Played on: Year of the Black Rainbow
Tuning: Dropped D Flat

Tabbed by Lawrence Jones

The verse riff and bridges in this song can be very
difficult to hear.  I used Audacity (freeware) to
manipulate this track so that those parts could clearly
be heard.

Key:
/ - slide towards bridge
\ - slide away from bridge
. - palm mute
p - pull off
h - hammer on
~ - let ring
b - bend to sound like the following note
r - release bend
* - natural harmonic
v - vibrato


Pre-Guitar Noise:


Keys: x 1

eb----------------------------------------------------|
Bb----------------------------------------------------|
Gb----------------------------------------------------|
Db-9b10r9~--------------------------------------------|
Ab----------------------------------------------------|
Db----------------------------------------------------|
	Note: This can be heard just before the guitar
	      starts.  It almost sounds like a scream.


Guitar Intro:


Claudio Intro Chords: x 2

eb-------------------------------------------------------|
Bb-------------------------------------------------------|
Gb-------------------------------------------------------|
Db---------------------------/10---9---------------------|
Ab-7------9----10--------12--/8----7---8----10----8------|
Db-7------9----10--------12------------8----10----8------|

Travis Intro Lead: x 2

eb-------------------------------------------------------|
Bb-------------------------------------------------------|
Gb-------------7---------7---10----9---------------------|
Db-7-5-7--9------10-9-10--------------8----10----8-------|
Ab-------------------------------------------------------|
Db-------------------------------------------------------|

Guitar Overdub I: x 1

eb-------------------------------------------------------|
Bb-10---~-----------------------------------13---~-------|
Gb-13b14~-----------------------------------16b17~-------|
Db-------------------------------------------------------|
Ab-------------------------------------------------------|
Db-------------------------------------------------------|

eb-------------------------------------------------------|
Bb-------------------------------------------------------|
Gb---------10---~----------------------------------------|
Db---------13b14~----------------------------------------|
Ab-------------------------------------------------------|
Db-------------------------------------------------------|


1st Verse:


Claudio Verse Riff: x 3

eb---------------------------------------------------------|
Bb-------------8---------------------------8---------------|
Gb---9------10---9----9-7--------9------10---9----9-7------|
Db-7---10-9--------10-----9----7---10-9--------10-----9----|
Ab--------------------------10--------------------------10-|
Db---------------------------------------------------------|
   . . .  . .  . . .  . . . .  . . .  . .  . . .  . . . .

eb---------------------------------------------------------|
Bb---------------------------------------------------------|
Gb---------------------------------------------------------|
Db---10---7-------7----------------------------------------|
Ab-8----8---8-7-5---5-8-7-0-7-7-7-7-7-7-8-8-8-8-8-10-------|
Db---------------------------------------------------------|
   . .  . . . . . . . . . . . . . . . . . . . . . .

Claudio Verse Riff End: x 1

eb---------------------------------------------------------|
Bb-------------8---------------------------8---------------|
Gb---9------10---9----9-7--------9------10---9----9-7------|
Db-7---10-9--------10-----9----7---10-9--------10-----9----|
Ab--------------------------10--------------------------10-|
Db---------------------------------------------------------|
   . . .  . .  . . .  . . . .  . . .  . .  . . .  . . . .

eb---------------------------------------------------------|
Bb---------------------------------------------------------|
Gb---------------------------------------------------------|
Db---10---7-------7----------------------------------------|
Ab-8----8---8-7-5---5-8-7-0-7-7-7-7-7-7-8-8-8-10\\--0------|
Db--------------------------------------------------0------|
   . .  . . . . . . . . . . . . . . . .

Travis Verse Lead I: x 1

eb----------------------------------------------------|
Bb-10---~---------------------------------------------|
Gb-13b14~---------------------------------------------|
Db----------------------------------------------------|
Ab----------------------------------------------------|
Db----------------------------------------------------|
	Note: Let these notes sustain over the first
	      measure of the Verse.

Travis Verse Lead II: x 1

eb----------------------------------------------------|
Bb----------------------------------------------------|
Gb----------------------------------------------------|
Db----------------------------------------------------|
Ab----------------------------------------------------|
Db----------------------------------------------------|
	Note: Over the second measure of the verse,
	      Travis does not play anything.


Travis Verse Lead III: x 2

eb-------------------15-------------------------------|
Bb-------17----18----------18----17~------------------|
Gb-14-14----14----14----14----14----------------------| x 2
Db----------------------------------------------------|
Ab----------------------------------------------------|
Db----------------------------------------------------|

eb----------------------------------------------------|
Bb-----17-15-------------------17-15------------------|
Gb-14--------17-16-17-16-14----------17-16-17-16-14---|
Db--------------------------17------------------------|
Ab----------------------------------------------------|
Db----------------------------------------------------|


1st Chorus:


Claudio Chorus Chords: x 1

eb----------------------------------------------------|
Bb----------------------------------------------------|
Gb----------------------------------------------------|
Db----------------------------------------------------|
Ab-7-7-7-7~--5-7-7-7-7-7-0-7-7-7-7~--5-7-7-7-7-7-0----|
Db-7-7-7-7~--5-7-7-7-7-7-0-7-7-7-7~--5-7-7-7-7-7-0----|

eb----------------------------------------------------|
Bb----------------------------------------------------|
Gb----------------------------------------------------|
Db----------------------------------------------------|
Ab-3--3-3-3-3--0--0-0-0-0--2--2-2-2-2--3--3-5--5------|
Db-3--3-3-3-3--0--0-0-0-0--2--2-2-2-2--3--3-5--5------|

eb----------------------------------------------------|
Bb----------------------------------------------------|
Gb----------------------------------------------------|
Db----------------------------------------------------|
Ab-7-7-7-7~--5-7-7-7-7-7-0-7-7-7-7~--5-7-7-7-12\\\----|
Db-7-7-7-7~--5-7-7-7-7-7-0-7-7-7-7~--5-7-7-7-12\\\----|

eb----------------------------------------------------|
Bb----------------------------------------------------|
Gb----------------------------------------------------|
Db----------------------------------------------------|
Ab-3--3-3-3-3--0--0-0-0-0--2--2-2-2-2--3--3-5--5------|
Db-3--3-3-3-3--0--0-0-0-0--2--2-2-2-2--3--3-5--5------|

Travis Chorus Lead I: x 1

eb----------------------------------------------------|
Bb----------------------------------------------------|
Gb-------12------------------12----14/----------------|
Db-12h14----14---------12h14----14--------------------|
Ab-------------12-12~---------------------------------|
Db----------------------------------------------------|

eb----------------------------------------------------|
Bb----------------------------------------------------|
Gb----------------------------------------------------|
Db--------------------------------------14------------|
Ab-12-------14-------------15--------------15-14-15---|
Db----------------------------------------------------|

eb----------------------------------------------------|
Bb----------------------------------------------------|
Gb-------12------------------12----------14/----------|
Db-12h14----14---------12h14----14-12-----------------|
Ab-------------12-12~-----------------15--------------|
Db----------------------------------------------------|

eb----------------------------------------------------|
Bb----------------------------------------------------|
Gb----------------------------------------------------|
Db--------------------------------------14------------|
Ab-12-------14-------------15--------------15-14-15---|
Db----------------------------------------------------|

2nd Verse:


Claudio Alt. Verse Riff: x 1

eb---------------------------------------------------------|
Bb---------------------------------------------------------|
Gb---------------------------------------------------------|
Db---------------------------------------------------------|
Ab-7\\\-------------------------------------------------10-|
Db-7\\\----------------------------------------------------|
   							.

eb---------------------------------------------------------|
Bb---------------------------------------------------------|
Gb---------------------------------------------------------|
Db---10---7-------7----------------------------------------|
Ab-8----8---8-7-5---5-8-7-0-7-7-7-7-7-7-8-8-8-8-8-10-------|
Db---------------------------------------------------------|
   . .  . . . . . . . . . . . . . . . . . . . . . .

Claudio Verse Riff x 2

Claudio Verse Riff End x 1

Bass Fill Behind Empty Verse: x 1

eb----------------------------------------------------|
Bb----------------------------------------------------|
Gb--------7-9-12-13-14-----------------7-9-10-9-10----|
Db-7-7-10--------------14-13-12-7-7-10-------------10-|
Ab----------------------------------------------------|
Db----------------------------------------------------|

Travis Verse Lead I x 1

Travis Verse Lead III x 2

Travis Verse Lead IV: x 1

eb----15-----------------------15---------------------|
Bb-------18-17-18-17-15-----------18-17-18-17-15------|
Gb-14-------------------17--14-------------------17---|
Db----------------------------------------------------|
Ab----------------------------------------------------|
Db----------------------------------------------------|

eb----------------------------------------------------|
Bb-----17-15-------------------17-15------------------|
Gb-14--------17-16-17-16-14----------17-16-17-16\\----|
Db--------------------------17------------------------|
Ab----------------------------------------------------|
Db----------------------------------------------------|

Guitar Overdub II:

eb----------------------------------------------------|
Bb--------------------------13---~--------------------|
Gb--------------------------16b17~--------------------|
Db----------------------------------------------------|
Ab----------------------------------------------------|
Db----------------------------------------------------|
	Note: You can hear this at the towards the end
	      of the second verse, just before the
              chorus comes in.


2nd Chorus:


Claudio Chorus Chords x 1

Travis Chorus Lead I x 1


3rd Chorus:


Claudio Chorus Chords x 1

Travis Chorus Lead II: x 1

eb----------------------------------------------------|
Bb----------------------------------------------------|
Gb-------12------------------12----14/----------------|
Db-12h14----14---------12h14----14--------------------|
Ab-------------12-12~---------------------------------|
Db----------------------------------------------------|

eb----------------------------------------------------|
Bb----------------------------------------------------|
Gb----------------------------------------------------|
Db--------------------------------------14------------|
Ab-12-------14-------------15--------------15-14-15---|
Db----------------------------------------------------|

eb----------------------------------------------------|
Bb----------------------------------------------------|
Gb-------12------------------12----------14/----------|
Db-12h14----14---------12h14----14-12-----------------|
Ab-------------12-12~-----------------15--------------|
Db----------------------------------------------------|

eb----------------------------------------------------|
Bb----------------------------------------------------|
Gb----------------------------------------------------|
Db-14-------12----------------------------------------|
Ab-------------------------15-----------14------------|
Db----------------------------------------------------|


Bridge I:


Claudio Bridge I Riff: x 1

eb----------------------------------------------------|
Bb----------------------------------------------------|
Gb----------------------------------------------------|
Db-7-7-7-7-7-7-7-7-7-7-7-7-7-7-7-7-7-7-x-7-x-7-x-7----|	 x 3
Ab-5-5-5-5-5-5-5-5-5-5-5-5-0-0-0-0-0-0-x-0-x-0-x-0----|
Db----------------------------------------------------|
     . . . . .   . . . . .   . . . . .

eb----------------------------------------------------|
Bb----------------------------------------------------|
Gb----------------------------------------------------|
Db----------------------------------------------------|
Ab-8-8-8-8-8-8-7-----7-----7-7-7-7-7-7----------9\\-0-|  x 1
Db-8-8-8-8-8-8---8-0---8-0-7-7-7-7-7-7-10-10-10-------|

eb----------------------------------------------------|
Bb----------------------------------------------------|
Gb----------------------------------------------------|
Db-7-7-7-7-7-7-7-7-7-7-7-7-7-7-7-7-7-7-x-7-x-7-x-7----|	 x 2
Ab-5-5-5-5-5-5-5-5-5-5-5-5-0-0-0-0-0-0-x-0-x-0-x-0----|
Db----------------------------------------------------|
     . . . . .   . . . . .   . . . . .

eb----------------------------------------------------|
Bb----------------------------------------------------|
Gb----------------------------------------------------|
Db----------------------------------------------------|
Ab-8-8-8-8-8-8-7-----7-----7-7-7-7-7-7----------9\\-0-|  x 1
Db-8-8-8-8-8-8---8-0---8-0-7-7-7-7-7-7-10-10-10-------|

Travis Bridge I Lead: x 1

eb----------------------------------------------------|
Bb----------------------------------------------------|
Gb----------------------------------------------------|
Db------------------------------15---14---------------|
Ab-17-15-14-14-17-15-14-14-12-------------12----------|
Db----------------------------------------------------|

eb----------------------------------------------------|
Bb----------------------------------------------------|
Gb----------------------------------------------------|
Db------------------------------17---15---14----------|  x 3
Ab-17-15-14-14-17-15-14-14-12-------------------------|
Db----------------------------------------------------|

eb----------------------------------------------------|
Bb----------------------------------------------------|
Gb----------------------------------------------------|
Db-15---------15-14-15-17-14-------------------16\\---|  x 1
Ab------------------------------------15-15-15--------|
Db----------------------------------------------------|

eb----------------------------------------------------|
Bb----------------------------------------------------|
Gb----------------------------------------------------|
Db------------------------------15---14---------------|
Ab-17-15-14-14-17-15-14-14-12-------------12----------|
Db----------------------------------------------------|

eb----------------------------------------------------|
Bb----------------------------------------------------|
Gb----------------------------------------------------|
Db------------------------------17---15---14----------|  x 2
Ab-17-15-14-14-17-15-14-14-12-------------------------|
Db----------------------------------------------------|

eb----------------------------------------------------|
Bb----------------------------------------------------|
Gb----------------------------------------------------|
Db-15---------15-14-15-17-14-------------------16\\---|  x 1
Ab------------------------------------15-15-15--------|
Db----------------------------------------------------|

Bridge II:


Claudio Bridge II Notes: x 4

eb----------------------------------------------------|
Bb----------------------------------------------------|
Gb----------------------------------------------------|
Db----------------------------------------------------|
Ab----------------------------------------------------|
Db-7-8-7-5-7--7-8-7-5-7--7-8-7-5-7-5-8-7-5-8-7-0------|
   . . . . .  . . . . .  . . . . . . . . . . . .

Travis Bridge II Lead: x 4

eb----------------------------------------------------|
Bb----------------------------------------------------|
Gb----------------------------------------------------|
Db--------8-7---------8-7---------8-7p0---------------|
Ab-7-8-10------7-8-10------7-8-10-------8-7-5-8-7-5---|
Db----------------------------------------------------|


Bridge III:


Claudio Bridge III Chords: x 2

eb----------------------------------------------------|
Bb-5-5-5-5-5-5-5-5-5-5-5-5-6-6-6-6-6-6-6-6-6-6-6-6----|
Gb-5-5-5-5-5-5-5-5-5-5-5-5-7-7-7-7-7-7-7-7-7-7-7-7----|
Db-7-7-7-7-7-7-7-7-7-7-7-7-8-8-8-8-8-8-8-8-8-8-8-8----|
Ab----------------------------------------------------|
Db----------------------------------------------------|


eb----------------------------------------------------|
Bb-6-6-6-6-6-6-6-6-6-6-6-6-5-5-5-5-5-5-5-5-5-5-5-5----|
Gb-7-7-7-7-7-7-7-7-7-7-7-7-7-7-7-7-7-7-7-7-7-7-7-7----|
Db-6-6-6-6-6-6-6-6-6-6-6-6-6-6-6-6-6-6-6-6-6-6-6-6----|
Ab----------------------------------------------------|
Db----------------------------------------------------|

Travis Bridge III Lead: x 1

eb----------------------------------------------------|
Bb------------5---6------------6~-----5---6-----------|
Gb-----5~------------5-----7~------7~---------7-------|
Db-7~------7~-----------------------------------------|
Ab----------------------------------------------------|
Db----------------------------------------------------|

eb-----------------------------8~-----8~--------------|
Bb-----8~-----8---9-----------------------------------|
Gb-10~-----10~-------10----9~------9~-----9~----------|
Db----------------------------------------------------|
Ab----------------------------------------------------|
Db----------------------------------------------------|

eb----------------------------------------------------|
Bb------------5---6------------6~-----5---6-----------|
Gb-----5~------------5-----7~------7~---------7-------|
Db-7~------7~-----------------------------------------|
Ab----------------------------------------------------|
Db----------------------------------------------------|

eb-----------------------------8~---------------------|
Bb-----8~-----8---9-----------------------------------|
Gb-10~-----10~-------10----9~------9~-----------------|
Db----------------------------------------------------|
Ab----------------------------------------------------|
Db----------------------------------------------------|


Verse Build-Up:


Claudio Verse Riff x 1

Claudio Verse Riff End x 1

Travis Verse Lead I x 1

Travis Verse Lead II x 1

Keys Lead: x 1

eb----------------------------------------------------|
Bb----------------------------------------------------|
Gb--------------7---10--9---------------10----12------|
Db-7---9---10-----------------------------------------|
Ab----------------------------------------------------|
Db----------------------------------------------------|

eb----------------------------------------------------|
Bb-10--12--13---15--17v-------------------------------|
Gb----------------------------------------------------|
Db----------------------------------------------------|
Ab----------------------------------------------------|
Db----------------------------------------------------|


4th Chorus:


Claudio Chorus Chords x 1

Travis Chorus Lead I x 1


5th Chorus:


Claudio Chorus Chords x 1

Travis Chorus Lead II x 1


Outro:


Claudio Chorus Chords x 2

Travis Outro Lead: x 1

eb----------------------------------------------------|
Bb----------------------------------------------------|
Gb-------12------------------12----14/----------------|
Db-12h14----14---------12h14----14--------------------|
Ab-------------12-12~---------------------------------|
Db----------------------------------------------------|

eb----------------------------------------------------|
Bb----------------------------------------------------|
Gb----------------------------------------------------|
Db--------------------------------------14------------|
Ab-12-------14-------------15--------------15-14-15---|
Db----------------------------------------------------|

eb----------------------------------------------------|
Bb----------------------------------------------------|
Gb-------12------------------12----------14/----------|
Db-12h14----14---------12h14----14-12-----------------|
Ab-------------12-12~-----------------15--------------|
Db----------------------------------------------------|

eb----------------------------------------------------|
Bb----------------------------------------------------|
Gb----------------------------------------------------|
Db-14-------12----------------------------------------|
Ab-------------------------15-----------14---15\------|
Db----------------------------------------------------|

eb----------------------------------------------------|
Bb----------------------------------------------------|
Gb-------12------------------12----14/----------------|
Db-12h14----14---------12h14----14--------------------|
Ab-------------12-12~---------------------------------|
Db----------------------------------------------------|

eb----------------------------------------------------|
Bb----------------------------------------------------|
Gb----------------------------------------------------|
Db--------------------------------------14------------|
Ab-12-------14-------------15--------------15-14-15---|
Db----------------------------------------------------|

eb----------------------------------------------------|
Bb----------------------------------------------------|
Gb-------12------------------12----------14/----------|
Db-12h14----14---------12h14----14-12-----------------|
Ab-------------12-12~-----------------15--------------|
Db----------------------------------------------------|

eb----------------------------------------------------|
Bb----------------------------------------------------|
Gb----------------------------------------------------|
Db-14-------12----------------------------------------|
Ab-------------------------15-----------14---15-------|
Db----------------------------------------------------|
	Note: The above is essentially a mix and match
	      of Travis' different chorus leads.


Finish:


Claudio Finish Chord:

eb----------|
Bb----------|
Gb----------|
Db----------|
Ab-7~-------|
Db-7~-------|

Travis Finish Chord:

eb----------|
Bb----------|
Gb----------|
Db----------|
Ab-14~------|
Db----------|


Random Outro Guitar:


eb-----------------------------|
Bb-----------------------------|
Gb-----------------------------|
Db-2h3p2-0~--------------------|
Ab---------0~------------------|
Db-----------------------------|

eb-0h1p0~----------------------|
Bb-------3~--------------------|
Gb---------2~------------------|
Db-----------------------------|
Ab-----------------------------|
Db-----------------------------|

eb-12h13p12~-------------------|
Bb----------15~----------------|
Gb-------------14~-------------|
Db-----------------------------|
Ab-----------------------------|
Db-----------------------------|

eb-17p15-17-17b19--------------|
Bb-----------------------------|
Gb-----------------------------|
Db-----------------------------|
Ab-----------------------------|
Db-----------------------------|
	Note: You can lightly hear the above right
	      before the song completely fades out.
comments
We did not receive enough feedback on this tab! Please rate:
print report bad tab
1 2 3 4 5
I want to post or [tab]
guest
You may want to rate the tab now too:
select rating
Please do not post tabs as comments. Select "correction" instead!