Oops, an error
Loading. Please wait.

Iro-Bot Tab

version 3
version 3

Whole song

Interactive

10,075 views 1 this week
3 commentsread comments
1 2 3 4 5
excellent!
x 3
add to favorites
launch autoscroll
font size
0
reset
how to read this tab
guitar tuner
Tab Pro tools
  • play this tab
  • loop segment
  • change instrument
  • show fretboard
  • metronome
Autoscroll
slow
fast
+/-
esc
set tempo
stop
Contributor
Tabbers playing skills
advanced +
Gtr I (Eb Ab Db Gb Bb Eb) - 'acous.'
Gtr II (Eb Ab Db Gb Bb Eb) - 'acous.'
Gtr III (Eb Ab Db Gb Bb Eb) - 'acous.'
Gtr IV (Eb Ab Db Gb Bb Eb) - 'acous.'

 Intro
  Moderately Q.=44
  N.C.(F)                                   (Am)
 1/8 6/8
      Gtr I
  E   E   S S E   E   S S E     E   S S E   S  S  S  S  S  S
|---|-------------------------|-------------------------------|
|---|-8-------8---8-------8---|-8-------8---8h10--8h10--8p=0--|
|---|-----0-----------0-------|-----0-------------------------|
|---|-7-----7-----7-----7-----|-7-----7-----------------------|
|---|-8-------8---8-------8---|-8-------8---0-(0)-0-(0)-0-(0)-|
|---|-------------------------|-------------------------------|
|
|     Gtr II
| E   E   E   E   E   E   E     E   E   E   S  S  S  S  S  S
|---|-------------------------|-------------------------------|
|---|-8-------8---8-------8---|-8-------8---8h10--8h10--8p=0--|
|---|-----0-----------0-------|-----0-------------------------|
|---|-------------------------|-------------------------------|
|---|-8-------8---8-------8---|-8-------8---0-(0)-0-(0)-0-(0)-|
|---|-------------------------|-------------------------------|
|
| Gtr III
| e   S S E   S S S S E   S S   S S E   S S S  S  E     S  S
|---|---7-------7---7-------7-|---7-------7----7-----------7--|
|---|-8-------5---8-------5---|-8-------5---8-----------5-----|
|---|-------------------------|-------------------------------|
|-7-|-------------------------|-------------------------------|
|---|-------------------------|-------------------------------|
|---|-------------------------|-------------------------------|


  (F)                                   (Am)
  E   S S E   E   S S E     E   S S E   S  S  S  S  S  S
|-------------------------|----------------------------------||
|-8-------8---8-------8---|-8-------8---8h10--8h10--8p=0-----||
|-----0-----------0-------|-----0----------------------------||
|-7-----7-----7-----7-----|-7-----7--------------------------||
|-8-------8---8-------8---|-8-------8---0-(0)-0-(0)-0-(0)----||
|-------------------------|----------------------------------||
|
| E   E   E   E   E   E     E   E   E   S  S  S  S  S  S
|-------------------------|----------------------------------||
|-8-------8---8-------8---|-8-------8---8h10--8h10--8p=0-----||
|-----0-----------0-------|-----0----------------------------||
|-------------------------|----------------------------------||
|-8-------8---8-------8---|-8-------8---0-(0)-0-(0)-0-(0)----||
|-------------------------|----------------------------------||
|
| S S E   S S S S E   S S   S S E   S S S  S  E     S  S
|---7-------7---7-------7-|---7-------7----7-----------7-----||
|-8-------5---8-------5---|-8-------5---8-----------5--------||
|-------------------------|----------------------------------||
|-------------------------|----------------------------------||
|-------------------------|----------------------------------||
|-------------------------|----------------------------------||


   Verse
    $
    (F)                                   (Am)
    E   S S E   E   S S E     E   S S E   S  S  S  S  S  S
||--------------------------|-------------------------------|
||o-8-------8---8-------8---|-8-------8---8h10--8h10--8p=0--|
||------0-----------0-------|-----0-------------------------|
||--7-----7-----7-----7-----|-7-----7-----------------------|
||o-8-------8---8-------8---|-8-------8---0-(0)-0-(0)-0-(0)-|
||--------------------------|-------------------------------|
|
|   E   E   E   E   E   E     E   E   E   S  S  S  S  S  S
||--------------------------|-------------------------------|
||o-8-------8---8-------8---|-8-------8---8h10--8h10--8p=0--|
||------0-----------0-------|-----0-------------------------|
||--------------------------|-------------------------------|
||o-8-------8---8-------8---|-8-------8---0-(0)-0-(0)-0-(0)-|
||--------------------------|-------------------------------|
|
|   S S E   S S S S E   S S   S S E   S S S  S  E     S  S
||----7-------7---7-------7-|---7-------7----7-----------7--|
||o-8-------5---8-------5---|-8-------5---8-----------5-----|
||--------------------------|-------------------------------|
||--------------------------|-------------------------------|
||o-------------------------|-------------------------------|
||--------------------------|-------------------------------|


  (F)                                   (Am)
  E   S S E   E   S S E     E   S S E   S  S  S  S  S  S      4x
|-------------------------|-----------------------------------||
|-8-------8---8-------8---|-8-------8---8h10--8h10--8p=0-----o||
|-----0-----------0-------|-----0-----------------------------||
|-7-----7-----7-----7-----|-7-----7---------------------------||
|-8-------8---8-------8---|-8-------8---0-(0)-0-(0)-0-(0)----o||
|-------------------------|-----------------------------------||
|
| E   E   E   E   E   E     E   E   E   S  S  S  S  S  S      4x
|-------------------------|-----------------------------------||
|-8-------8---8-------8---|-8-------8---8h10--8h10--8p=0-----o||
|-----0-----------0-------|-----0-----------------------------||
|-------------------------|-----------------------------------||
|-8-------8---8-------8---|-8-------8---0-(0)-0-(0)-0-(0)----o||
|-------------------------|-----------------------------------||
|
| S S E   S S S S E   S S   S S E   S S S  S  E     S  S      4x
|---7-------7---7-------7-|---7-------7----7-----------7------||
|-8-------5---8-------5---|-8-------5---8-----------5--------o||
|-------------------------|-----------------------------------||
|-------------------------|-----------------------------------||
|-------------------------|----------------------------------o||
|-------------------------|-----------------------------------||


   Pre-Chorus
                                            To Coda
    (Fsus2)                               N.C.
    Gtr I
    S S S S E   S S S S E     S S S S S S  E   S S E
||--------------------------|--------------------------|
||o-------------------------|--------------------------|
||--------------------------|--------------------------|
||----------5-----------5---|---------5----------------|
||o-----3-3---------3-3-----|-----3-3-----/5---3p2-0---|
||--0h1---------0h1---------|-0h1-------1--------------|
|
|   Gtr II
|   S S S S E   S S S S E     S S S S S S  E   S S E
||--------------------------|--------------------------|
||o-------------------------|--------------------------|
||------0---0-------0---0---|-----0---0----------------|
||--------2-----------2-----|-------2------------------|
||o-------------------------|-------------/5---3p2-0---|
||--0h1---------0h1---------|-0h1-------1--------------|
|
|   Gtr IV
|   S S S S S S S S S S S S   S S S S S S  S S S S S S
||--0-------0---0-------0---|-0-------0----0-------0---|
||o---6-------6---6-------6-|---6-------6----6-------6-|
||------5-----------5-------|-----5------------5-------|
||--------7-----------7-----|-------7------------7-----|
||o-------------------------|--------------------------|
||--------------------------|--------------------------|


  (Fsus2)                               N.C.
  S S S S E   S S S S E     S S S S S S  E   S S E       3x
|-------------------------|------------------------------||
|-------------------------|-----------------------------o||
|-------------------------|------------------------------||
|---------5-----------5---|---------5--------------------||
|-----3-3---------3-3-----|-----3-3-----/5---3p2-0------o||
|-0h1---------0h1---------|-0h1-------1------------------||
|
| S S S S E   S S S S E     S S S S S S  E   S S E       3x
|-------------------------|------------------------------||
|-------------------------|-----------------------------o||
|-----0---0-------0---0---|-----0---0--------------------||
|-------2-----------2-----|-------2----------------------||
|-------------------------|-------------/5---3p2-0------o||
|-0h1---------0h1---------|-0h1-------1------------------||
|
| S S S S S S S S S S S S   S S S S S S  S S S S S S     3x
|-0-------0---0-------0---|-0-------0----0-------0-------||
|---6-------6---6-------6-|---6-------6----6-------6----o||
|-----5-----------5-------|-----5------------5-----------||
|-------7-----------7-----|-------7------------7---------||
|-------------------------|-----------------------------o||
|-------------------------|------------------------------||


   Chorus
    B5
   4/4
    Gtrs I, II
    S     +S  E S     +S  E S     +S  E S     +S  E
||--------------------------------------------------|
||o-------------------------------------------------|
||--------------------------------------------------|
||--4b4.5r(4)-4-4b4.5r(4)-4-4b4.5r(4)-4-4b4.5r(4)-4-|
||o-2-----(2)-2-2-----(2)-2-2-----(2)-2-2-----(2)-2-|
||--------------------------------------------------|


                                                D5/A
  S     +S  E S     +S  E S     +S  E S     +S  E
|-------------------------------------------------|
|-------------------------------------------------|
|-------------------------------------------------|
|-4b4.5r(4)-4-4b4.5r(4)-4-4b4.5r(4)-4-4b4.5r(4)-0-|
|-2-----(2)-2-2-----(2)-2-2-----(2)-2-2-----(2)-0-|
|-------------------------------------------------|


  G5                E       Em       A5/E
  E E E E E E E E   E E E E  E  E  E E  4x
|-----------------|---------------------||
|-----------------|--------------------o||
|-----------------|---------------------||
|-----------------|---------------------||
|-5-5-5-5-5-5-5-5-|-7-7-7-7S10-10-10-0-o||
|-3-3-3-3-3-3-3-3-|-0-0-0-0--0--0--0-0--||


  B5
  W          W
|----------|------||
|----------|------||
|----------|------||
|-4--------|------||
|-2--------|------||
|----------|------||


 Pre-Verse
  (F)                       (Am)
 6/8
  Gtr I
  E S S E E S S E   E S S E S  S  S  S  S  S
|-----------------|---------------------------|
|-8-----8-8-----8-|-8-----8-8h10--8h10--8p=0--|
|---0-------0-----|---0-----------------------|
|-7---7---7---7---|-7---7---------------------|
|-8-----8-8-----8-|-8-----8-0-(0)-0-(0)-0-(0)-|
|-----------------|---------------------------|
|
| Gtr II
| E E   E E E   E   E E   E S  S  S  S  S  S
|-----------------|---------------------------|
|-8-----8-8-----8-|-8-----8-8h10--8h10--8p=0--|
|---0-------0-----|---0-----------------------|
|-----------------|---------------------------|
|-8-----8-8-----8-|-8-----8-0-(0)-0-(0)-0-(0)-|
|-----------------|---------------------------|


                              D.S. al Coda
  (F)                       (Am)
  E S S E E S S E   E S S E S  S  S  S  S  S
|-----------------|---------------------------||
|-8-----8-8-----8-|-8-----8-8h10--8h10--8p=0--||
|---0-------0-----|---0-----------------------||
|-7---7---7---7---|-7---7---------------------||
|-8-----8-8-----8-|-8-----8-0-(0)-0-(0)-0-(0)-||
|-----------------|---------------------------||
|
| E E   E E E   E   E E   E S  S  S  S  S  S
|-----------------|---------------------------||
|-8-----8-8-----8-|-8-----8-8h10--8h10--8p=0--||
|---0-------0-----|---0-----------------------||
|-----------------|---------------------------||
|-8-----8-8-----8-|-8-----8-0-(0)-0-(0)-0-(0)-||
|-----------------|---------------------------||


   Chorus
    &
    B5
   4/4
    Gtrs I, II
    S     +S  E S     +S  E S     +S  E S     +S  E
||--------------------------------------------------|
||o-------------------------------------------------|
||--------------------------------------------------|
||--4b4.5r(4)-4-4b4.5r(4)-4-4b4.5r(4)-4-4b4.5r(4)-4-|
||o-2-----(2)-2-2-----(2)-2-2-----(2)-2-2-----(2)-2-|
||--------------------------------------------------|


                                                D5/A
  S     +S  E S     +S  E S     +S  E S     +S  E
|-------------------------------------------------|
|-------------------------------------------------|
|-------------------------------------------------|
|-4b4.5r(4)-4-4b4.5r(4)-4-4b4.5r(4)-4-4b4.5r(4)-0-|
|-2-----(2)-2-2-----(2)-2-2-----(2)-2-2-----(2)-0-|
|-------------------------------------------------|


  G5                E       Em       A5/E
  E E E E E E E E   E E E E  E  E  E E  4x
|-----------------|---------------------||
|-----------------|--------------------o||
|-----------------|---------------------||
|-----------------|---------------------||
|-5-5-5-5-5-5-5-5-|-7-7-7-7S10-10-10-0-o||
|-3-3-3-3-3-3-3-3-|-0-0-0-0--0--0--0-0--||


   Outro
    B5
    Gtrs I, II
    S     +S  E   S     +S  E   S     +S  E   S     +S  E
||----------------------------------------------------------|
||o---------------------------------------------------------|
||----------------------------------------------------------|
||--4b4.5r(4)-4---4b4.5r(4)-4---4b4.5r(4)-4---4b4.5r(4)-4---|
||o-2-----(2)-2---2-----(2)-2---2-----(2)-2---2-----(2)-2---|
||----------------------------------------------------------|
|
|   Gtr IV
|   S      S  S S S      S  S S S      S  S S S      S  S S
||--0-------------0-----------------------------------------|
||o-3------3--3-3-3------3--3-3-5------5--5-5-5------5--5-5-|
||----------------------------------------------------------|
||----------------------------------------------------------|
||o---------------------------------------------------------|
||----------------------------------------------------------|


                                                      D5/A
  S     +S  E   S     +S  E   S     +S  E   S     +S  E
|---------------------------------------------------------|
|---------------------------------------------------------|
|---------------------------------------------------------|
|-4b4.5r(4)-4---4b4.5r(4)-4---4b4.5r(4)-4---4b4.5r(4)-0---|
|-2-----(2)-2---2-----(2)-2---2-----(2)-2---2-----(2)-0---|
|---------------------------------------------------------|
|
| S      S  S S S      S  S S S      S  S S S      S  S S
|---------------------------------------------------------|
|-7------7--7-7-7------7--7-7-7------7--7-7-7------7--7-7-|
|---------------------------------------------------------|
|---------------------------------------------------------|
|---------------------------------------------------------|
|---------------------------------------------------------|


  G5                                E               Em             A5/E
  E   E   E   E   E   E   E   E     E   E   E   E    E    E    E   E    4x
|---------------------------------|-------------------------------------||
|---------------------------------|------------------------------------o||
|---------------------------------|-------------------------------------||
|---------------------------------|-------------------------------------||
|-5---5---5---5---5---5---5---5---|-7---7---7---7S==10---10---10---0---o||
|-3---3---3---3---3---3---3---3---|-0---0---0---0----0----0----0---0----||
|
| S S S S S S S S S S S S S S S S   S S S S S S S S  S S  S S  S S S S  4x
|---------------------------------|-------------------------------------||
|-5-5-5-5-7-7-3-3-3-3-3-3-5-5-5-5-|-2-2-2-2-2-2-2-2--2-2--2-2--2-2-2-2-o||
|---------------------------------|-------------------------------------||
|---------------------------------|-------------------------------------||
|---------------------------------|------------------------------------o||
|---------------------------------|-------------------------------------||


  B5
  W          +W
|----------|--------*|
|----------|--------*|
|----------|--------*|
|-4--------|-(4)----*|
|-2--------|-(2)----*|
|----------|--------*|
|
| W          +W
|-0--------|-(0)----*|
|-3--------|-(3)----*|
|----------|--------*|
|----------|--------*|
|----------|--------*|
|----------|--------*|


Duration Legend
---------------
W - whole; H - half; Q - quarter; E - 8th; S - 16th; T - 32nd; X - 64th; a - acciaccatura
+ - note tied to previous; . - note dotted; .. - note double dotted
Uncapitalized letters represent notes that are staccato (1/2 duration)
Irregular groupings are notated above the duration line
Duration letters will always appear directly above the note/fret number it represents the
duration for.  Duration letters with no fret number below them represent rests.  Multi-
bar rests are notated in the form Wxn, where n is the number of bars to rest for.  Low
melody durations appear below the staff

Tablature Legend
----------------
 h   - hammer-on
 p   - pull-off
 b   - bend
 pb  - pre-bend
 r   - bend release (if no number after the r, then release immediately)
 /\  - slide into or out of (from/to "nowhere")
 s   - legato slide
 S   - shift slide
  - natural harmonic
[n]  - artificial harmonic
n(n) - tapped harmonic
 ~   - vibrato
 tr  - trill
 T   - tap
 TP  - trem. picking
 PM  - palm muting
\n/  - tremolo bar dip; n = amount to dip
 \n  - tremolo bar down
 n/  - tremolo bar up
/n\  - tremolo bar inverted dip
 =   - hold bend; also acts as connecting device for hammers/pulls
 <>  - volume swell (louder/softer)
 x   - on rhythm slash represents muted slash
 o   - on rhythm slash represents single note slash

Misc Legend
-----------
 |  - bar
||  - double bar
||o - repeat start
o|| - repeat end
*|  - double bar (ending)
 :  - bar (freetime)
 $  - Segno
 &  - Coda
Tempo markers -  = BPM(8/16=s8/s16), where s8 = swing 8ths, s16 = swing 16ths


comments
We did not receive enough feedback on this tab! Please rate:
print report bad tab
1 2 3 4 5
3 comments total.
-2 reply
MrColon15 wrote on May 18 2010, 12:15 pm

Hey, Idiot! The song is Untitled!

+2 reply
MR_KNOT wrote on January 18 2011, 06:50 pm

hey, idiot. these guy tab this song perfectly by themselves. shut the f**k up.

0 reply
DavidRayT wrote on February 4 2011, 12:47 pm

Perfect! Thanks!

I want to post or [tab]
guest
You may want to rate the tab now too:
select rating
Please do not post tabs as comments. Select "correction" instead!