Oops, an error
Loading. Please wait.

Iron Fist Tab

version 1
version 1

Solo

Whole song

Interactive

8,525 views 27 this week
1 commentread comment
1 2 3 4 5
accurate
x 8
add to favorites
launch autoscroll
font size
0
reset
how to read this tab
guitar tuner
Tab Pro tools
  • play this tab
  • loop segment
  • change instrument
  • show fretboard
  • metronome
Autoscroll
slow
fast
+/-
esc
set tempo
stop
Contributor
Difficulty
novice
                                  Iron Fist                                     


                                                              Coheed and Cambria
Travis (Capo 4)


INTRO/VERSE
     S  S S E.  E  E  E  S S E     S  S S E.  E  E  E  S S E   
E||--5p-0-----------------------|--5p-0-----------------------|
B||---------6------8-----8------|---------6------8-----8------|
G||-------5-----------5----5----|-------5-----------5----5----|
D||--0----------0------------0--|--0----------0------------0--|
A||-----------------------------|-----------------------------|
E||-----------------------------|-----------------------------|


  E  S S E  E  E  S S  E  E     E  S S E  E  E  S S  E  E   4x
-----------------------------|------------------------------||
--3----3----3--1----1p-0-----|--3----3----3--1----1p-0------||
-----0------------0----------|-----0------------0----------*||
-----------------------------|-----------------------------*||
--3------3-----3----------3--|--3------3-----3----------3---||
-----------------------------|------------------------------||

                           CHORUS
  E  S S E  E  Q    Q         E  S S  S S E  E  E  S S E   
-------------------------||-------------------------------|
--3----3----3--1----0----||---1---------1----3-----3------|
-----0-------------------||*-------0h-2---------2----2----|
-------------------------||*-----0---------------------0--|
--3------3-----3----2----||-------------------------------|
-------------------------||---1-----------1---------------|


  E  S S  S S E  E  E  S S E     E  S S  S S E  E  E  S S E   
------------------------------|------------------------------|
--1---------1----3-----3------|--1---------1----3-----3------|
-------0h-2---------2----2----|-------0h-2---------2----2----|
-----0---------------------0--|-----0---------------------0--|
------------------------------|--0-----------0---------------|
--1-----------1---------------|------------------------------|

                                 VERSE
  E  S S  S S E  E  E  S S E        S  S S E.  E  E  E  S S E   
-------------------------------||---5p-0-----------------------|
--1---------1----3-----3-------||----------6------8-----8------|
-------0h-2---------2----2----*||*-------5-----------5----5----|
-----0---------------------0--*||*--0----------0------------0--|
--0-----------0----------------||------------------------------|
-------------------------------||------------------------------|


  S  S S E.  E  E  E  S S E     E  S S E  E  E  S S  E  E   
--5p-0-----------------------|-----------------------------|
---------6------8-----8------|--3----3----3--1----1p-0-----|
-------5-----------5----5----|-----0------------0----------|
--0----------0------------0--|-----------------------------|
-----------------------------|--3------3-----3----------3--|
-----------------------------|-----------------------------|


  E  S S E  E  E  S S  E  E       E  S S E  E  Q    Q     
------------------------------||-------------------------|
--3----3----3--1----1p-0------||--3----3----3--1----0----|
-----0------------0----------*||-----0-------------------|
-----------------------------*||-------------------------|
--3------3-----3----------3---||--3------3-----3----2----|
------------------------------||-------------------------|

CHORUS
    E  S S  S S E  E  E  S S E     E  S S  S S E  E  E  S S E   
|-------------------------------|------------------------------|
|---1---------1----3-----3------|--1---------1----3-----3------|
|*-------0h-2---------2----2----|-------0h-2---------2----2----|
|*-----0---------------------0--|-----0---------------------0--|
|-------------------------------|------------------------------|
|---1-----------1---------------|--1-----------1---------------|


  E  S S  S S E  E  E  S S E     E  S S  S S E  E  E  S S E     
------------------------------|-------------------------------||
--1---------1----3-----3------|--1---------1----3-----3-------||
-------0h-2---------2----2----|-------0h-2---------2----2----*||
-----0---------------------0--|-----0---------------------0--*||
--0-----------0---------------|--0-----------0----------------||
------------------------------|-------------------------------||

BRIDGE
   E  S S S S S S E  S S  E  E     E  S S S S S S E  S S  E  E   
--------------------------------|-------------------------------|
---3----3---3-----1----1p-0-----|--3----3---3-----1----1p-0-----|
*-----0-------0------0----------|-----0-------0------0----------|
*---------------0---------------|---------------0---------------|
--------------------------------|-------------------------------|
---3------3-------3----------3--|--3------3-------3----------3--|


  E  S E  S E  E  E  E  E     E  S E  S E  E  E  E  E     
---------------------------|----------------------------||
-------0-------------------|-------0--------------------||
--5-------5----7-----7-----|--5-------5----7-----7-----*||
-----5------5-----5-----5--|-----5------5-----5-----5--*||
--0------------0-----------|--0------------0------------||
---------------------------|----------------------------||

GUITAR SOLO
   S  S S E.  E  E  E  S S E     S  S S E.  E  E  E  S S E   
---5p-0-----------------------|--5p-0-----------------------|
----------6------8-----8------|---------6------8-----8------|
*-------5-----------5----5----|-------5-----------5----5----|
*--0----------0------------0--|--0----------0------------0--|
------------------------------|-----------------------------|
------------------------------|-----------------------------|


  E  S S E  E  E  S S  E  E     E  S S E  E  E  S S  E  E     
-----------------------------|------------------------------||
--3----3----3--1----1p-0-----|--3----3----3--1----1p-0------||
-----0------------0----------|-----0------------0----------*||
-----------------------------|-----------------------------*||
--3------3-----3----------3--|--3------3-----3----------3---||
-----------------------------|------------------------------||

CHORUS
  E  S S  S S E  E  E  S S E     E  S S  S S E  E  E  S S E   
------------------------------|------------------------------|
--1---------1----3-----3------|--1---------1----3-----3------|
-------0h-2---------2----2----|-------0h-2---------2----2----|
-----0---------------------0--|-----0---------------------0--|
------------------------------|------------------------------|
--1-----------1---------------|--1-----------1---------------|


  E  S S  S S E  E  E  S S E     E  S S  S S E  E  E  S S E    
------------------------------|------------------------------||
--1---------1----3-----3------|--1---------1----3-----3------||
-------0h-2---------2----2----|-------0h-2---------2----2----||
-----0---------------------0--|-----0---------------------0--||
--0-----------0---------------|--0-----------0---------------||
------------------------------|------------------------------||




Duration Legend
---------------
W - whole
H - half
Q - quarter
E - 8th
S - 16th
T - 32nd
X - 64th
. - note dotted
|-n-|  - n-tuplets


Tablature Legend
----------------
L - tied note
x - dead note
g - grace note
(n) - ghost note
> - accentuded note
NH - natural harmonic
AH - artificial harmonic
TH - tapped harmonic
SH - semi harmonic
PH - pitch harmonic
h - hammer on
p - pull off
b - bend
br - bendRelease
pb - preBend
pbr - preBendRelease
brb - bendReleaseBend
\n/ - tremolo bar dip
\n - tremolo bar dive
-/n - tremolo bar Release up
/n\ - tremolo bar inverted dip
/n - tremolo bar return
-\n - tremolo bar Release down
S - shift slide
s - legato slide
/ -  slide into from below or out of upwards
\ -  slide into from above or out of downwards
~ - vibrato
W - wide vibrato
tr - trill
TP - tremolo picking
T - tapping
S - slap
P - pop
< - fade in
^ - brush up
v - brush down
comments
print report bad tab
1 comment total.
0 reply
Coca30stmMCRFan wrote on February 9 2013, 06:04 pm

Based off of Claudio's own acoustic version this is fairly accurate, although I would love to see the update now with the second guitar based off of their newest Afterman: Descension album

I want to post or [tab]
guest
You may want to rate the tab now too:
select rating
Please do not post tabs as comments. Select "correction" instead!