Oops, an error
Loading. Please wait.

Island tab

version 1
version 1

Whole song

Interactive

8,335 views 27 this week
2 commentsread comments
1 2 3 4 5
x 11
add to favorites
×
Save as Personal and add changes to this tab that will be seen only by you. Learn more ›
×
You can save this tab as Personal to edit and correct it or add notes. All changes will be seen only by you. Learn more »
launch autoscroll
font size
0
reset
how to read this tab
guitar tuner
edit
Autoscroll
slow
fast
+/-
esc
set tempo
stop
Author
Difficulty
-------------------------------------------------------------------------------
                             ISLAND - Coheed and Cambria
-------------------------------------------------------------------------------
Tabbed by: Mr.S22
E-mail:

Tuning: eBGDAE


[Intro]

CLAUDIO (GUITAR 1)
e|------------------------------------------------------------------------------|
B|------------------------------------------------------------------------------|
G|------------------------------------------------------------------------------|
D|------------------------------------------------------------------------------|
A|------------------------------------------------------------------------------|
E|------------------------------------------------------------------------------|

TRAVIS (GUITAR 2)
e|------------------------------------------------------------------------------|
B|-10---10---10---10---10---10------------10---10---10---10---10--10------------|
G|----9----9----9----9----9----9-6-7-9-6-----9----9----9----9----9---9-6-7-9-6--|
D|------------------------------------------------------------------------------|
A|------------------------------------------------------------------------------|
E|------------------------------------------------------------------------------|

CLAUDIO (GUITAR 1)
e|------------------------------------------------------------------------------|
B|------------------------------------------------------------------------------|
G|------------------------------------------------------------------------------|
D|-X-X--7~~~~~~~~~~~~~~~~~~~~~~~~~~~~~~~~--X-X--7-------------------------------|
A|-X-X--7~~~~~~~~~~~~~~~~~~~~~~~~~~~~~~~~--X-X--7-------------------------------|
E|-X-X--5~~~~~~~~~~~~~~~~~~~~~~~~~~~~~~~~--X-X--5-------------------------------|

TRAVIS (GUITAR 2)
e|------------------------------------------------------------------------------|
B|-10---10---10---10---10---10------------10---10---10---10---10--10------------|
G|----9----9----9----9----9----9-6-7-9-6-----9----9----9----9----9---9-6-7-9-6--|
D|------------------------------------------------------------------------------|
A|------------------------------------------------------------------------------|
E|------------------------------------------------------------------------------|

CLAUDIO (GUITAR 1)
e|------------------------------------------------------------------------------|
B|------------------------------------------------------------------------------|
G|------------------------------------------------------------------------------|
D|-X-X--4~~~~~~~~~~~~~~~~~~~~~~~~~~~~~~~~--X-X--4-------------------------------|
A|-X-X--4~~~~~~~~~~~~~~~~~~~~~~~~~~~~~~~~--X-X--4-------------------------------|
E|-X-X--2~~~~~~~~~~~~~~~~~~~~~~~~~~~~~~~~--X-X--2-------------------------------|

TRAVIS (GUITAR 2)
e|------------------------------------------------------------------------------|
B|-10---10---10---10---10---10------------10---10---10---10---10--10------------|
G|----9----9----9----9----9----9-6-7-9-6-----9----9----9----9----9---9-6-7-9-6--|
D|------------------------------------------------------------------------------|
A|------------------------------------------------------------------------------|
E|------------------------------------------------------------------------------|

CLAUDIO (GUITAR 1)
e|------------------------------------------------------------------------------|
B|------------------------------------------------------------------------------|
G|------------------------------------------------------------------------------|
D|-X-X--2~~~~~~~~~~~~~~~~~~~~~~~~~~~~~~~--X-X--2--------------------------------|
A|-X-X--2~~~~~~~~~~~~~~~~~~~~~~~~~~~~~~~--X-X--2--------------------------------|
E|-X-X--0~~~~~~~~~~~~~~~~~~~~~~~~~~~~~~~--X-X--0--------------------------------|

TRAVIS (GUITAR 2)
e|------------------------------------------------------------------------------|
B|-10---10---10---10---10---10------------10---10---10---10---10--10------------|
G|----9----9----9----9----9----9-6-7-9-6-----9----9----9----9----9---9-6-7-9-6--|
D|------------------------------------------------------------------------------|
A|------------------------------------------------------------------------------|
E|------------------------------------------------------------------------------|


CLAUDIO (GUITAR 1)                         PM............. A.H............
e|--------------------------------------------------------------------------|
B|--------------------------------------------------------------------------|
G|-X-X--7~~~~~~~~~~~~~~~~~~~~~~~~~~~~~~~~--7-7-7-7-7-7-7-7------------------|
D|-X-X--7~~~~~~~~~~~~~~~~~~~~~~~~~~~~~~~~--7-7-7-7-7-7-7-7------------------|
A|-X-X--5~~~~~~~~~~~~~~~~~~~~~~~~~~~~~~~~--5-5-5-5-5-5-5-5-5-5-5-5-5-5-5-5--|
E|--------------------------------------------------------------------------|

TRAVIS (GUITAR 2)
e|------------------------------------------------------------------------------|
B|-10---10---10---10---10---10------------10---10---10---10---10--10------------|
G|----9----9----9----9----9----9-6-7-9-6-----9----9----9----9----9---9-6-7-9-6--|
D|------------------------------------------------------------------------------|
A|------------------------------------------------------------------------------|
E|------------------------------------------------------------------------------|

CLAUDIO (GUITAR 1)
e|---------------------------------------------------------------------------------------|
B|---------------------------------------------------------------------------------------|
G|------6-----------7-7-7------------6----------------------------6-----------7-7-7-7-7--|
D|-7-7--6--4--2--4--7-7-7-5-5---7-7--6--4--2--4--2-2-2-2-2---7-7--6--4--2--4--7-7-7-7-7--|
A|-7-7--4--4--2--4--5-5-5-5-5---7-7--4--4--2--4--2-2-2-2-2---7-7--4--4--2--4--5-5-5-5-5--|
E|-5-5-----2--0--2--------3-3---5-5-----2--0--2--0-0-0-0-0---5-5-----2--0--2-------------|

TRAVIS (GUITAR 2)
e|---------------------------------------|x3
B|-10---10---10---10---10---10-----------|
G|----9----9----9----9----9----9-6-7-9-6-|
D|---------------------------------------|
A|---------------------------------------|
E|---------------------------------------|

CLAUDIO (GUITAR 1)
    PM...........    PM...........
e|---------------------------------|
B|---------------------------------|
G|---------------------------------|
D|-4-4-4-4-4-4-4-4/7-7-7-7-7-7-7-7-|
A|-2-2-2-2-2-2-2-2/5-5-5-5-5-5-5-5-|
E|---------------------------------|

TRAVIS (GUITAR 2)
e|---------------------------------|
B|---------------------------------|
G|-9-9-9-7-7-6-6-6-6-7-6-----------|
D|-----------------------7-7-7-7-7-|
A|---------------------------------|
E|---------------------------------|


[Verse 1]

CLAUDIO (GUITAR 1)
  PM..................................................... .............................
e|---------------------------------------------------------------------------------------|
B|---------------------------------------------------------------------------------------|
G|------6-----------7-7-7------------6----------------------------6-----------7-7-7-7-7--|
D|-7-7--6--4--2--4--7-7-7-5-5---7-7--6--4--2--4--2-2-2-2-2---7-7--6--4--2--4--7-7-7-7-7--|
A|-7-7--4--4--2--4--5-5-5-5-5---7-7--4--4--2--4--2-2-2-2-2---7-7--4--4--2--4--5-5-5-5-5--|
E|-5-5-----2--0--2--------3-3---5-5-----2--0--2--0-0-0-0-0---5-5-----2--0--2-------------|

    PM...........    PM...........
e|----------------------------------|
B|----------------------------------|
G|----------------------------------|
D|-4-4-4-4-4-4-4-4/7-7-7-7-7-7-7-7--|
A|-2-2-2-2-2-2-2-2/5-5-5-5-5-5-5-5--|
E|----------------------------------|

      PM................................................. .............................
e|---------------------------------------------------------------------------------------|
B|---------------------------------------------------------------------------------------|
G|------6-----------7-7-7------------6----------------------------6-----------7-7-7-7-7--|
D|-7-7--6--4--2--4--7-7-7-5-5---7-7--6--4--2--4--2-2-2-2-2---7-7--6--4--2--4--7-7-7-7-7--|
A|-7-7--4--4--2--4--5-5-5-5-5---7-7--4--4--2--4--2-2-2-2-2---7-7--4--4--2--4--5-5-5-5-5--|
E|-5-5-----2--0--2--------3-3---5-5-----2--0--2--0-0-0-0-0---5-5-----2--0--2-------------|

TRAVIS (GUITAR 2)
e|------------------------------------------------------------------------------------9---|
B|----------------------------------------------------------10--10--10--10--10--10--10----|
G|------------------------------------------------------------9---9---9---9---9---9-------|
D|----------------------------------------------------------------------------------------|
A|----------------------------------------------------------------------------------------|
E|----------------------------------------------------------------------------------------|

    PM...........    PM...........
e|-------------------------------------------------------------------------------|
B|-------------------------------------------------------------------------------|
G|-4-4-4-4-4-4-4-4/7-7-7-7-7-7-7-7--7--7-7--7-7-7--7--7-7--7-7-7--7--7-7--7-7-7--|
D|-4-4-4-4-4-4-4-4/7-7-7-7-7-7-7-7--7--7-7--7-7-7--7--7-7--7-7-7--7--7-7--7-7-7--|
A|-2-2-2-2-2-2-2-2/5-5-5-5-5-5-5-5--5--5-5--5-5-5--4--4-4--4-4-4--5--5-5--5-5-5--|
E|----------------------------------------------------------------5--5-5--5-5-5--|

TRAVIS (GUITAR 2)
e|-------------------------------------------------------------------------------|
B|------------------------------------------------10------10--9--9bh10-----------|
G|-11~~~~~~~~~~~~--9~~~~~~~~~~~~~~--------------------9--------------------------|
D|-----------------------------------------------------------------------11--9---|
A|-------------------------------------------------------------------------------|
E|-------------------------------------------------------------------------------|


[Chorus]

CLAUDIO (GUITAR 1)
e|------------------------------------------------------------------|
B|------------------------------------------------------------------|
G|-------------------------------------------------7-7-7-7-7-7------|
D|-4-4-4-4-4-4-4-4-2-2-2-2-2-2-2-2-7-7-7-7-7-7-7-7-7-7-7-7-7-7-X-X--|
A|-4-4-4-4-4-4-4-4-2-2-2-2-2-2-2-2-7-7-7-7-7-7-7-7-5-5-5-5-5-5-X-X--|
E|-2-2-2-2-2-2-2-2-0-0-0-0-0-0-0-0-5-5-5-5-5-5-5-5-------------X-X--|

TRAVIS (GUITAR 2)
e|-9-----9-----9----7-----7------9-----12------9--------------------|
B|---7-7---7-7---7----5-5---5--5---7-7----10-----7-7-----7----------|
G|-------------------------------------------9-------9-9---9-9------|
D|------------------------------------------------------------------|
A|------------------------------------------------------------------|
E|------------------------------------------------------------------|

CLAUDIO (GUITAR 1)
e|------------------------------------------------------------------|
B|------------------------------------------------------------------|
G|-------------------------------------------------7-7-7-7-7-7-7-7--|
D|-4-4-4-4-4-4-4-4-2-2-2-2-2-2-2-2-7-7-7-7-7-7-7-7-7-7-7-7-7-7-7-7--|
A|-4-4-4-4-4-4-4-4-2-2-2-2-2-2-2-2-7-7-7-7-7-7-7-7-5-5-5-5-5-5-5-5--|
E|-2-2-2-2-2-2-2-2-0-0-0-0-0-0-0-0-5-5-5-5-5-5-5-5------------------|

TRAVIS (GUITAR 2)
e|-9-----9-----9----7-----7------9-----12------9--------------------|
B|---7-7---7-7---7----5-5---5--5---7-7----10-----7-7-----7-----7----|
G|-------------------------------------------9-------9-9---9-9---9--|
D|------------------------------------------------------------------|
A|------------------------------------------------------------------|
E|------------------------------------------------------------------|

CLAUDIO (GUITAR 1)
e|------------------------------------------------------------------|
B|------------------------------------------------------------------|
G|-------------------------------------------------7-7-7-7-7-7------|
D|-4-4-4-4-4-4-4-4-2-2-2-2-2-2-2-2-7-7-7-7-7-7-7-7-7-7-7-7-7-7-X-X--|
A|-4-4-4-4-4-4-4-4-2-2-2-2-2-2-2-2-7-7-7-7-7-7-7-7-5-5-5-5-5-5-X-X--|
E|-2-2-2-2-2-2-2-2-0-0-0-0-0-0-0-0-5-5-5-5-5-5-5-5-------------X-X--|

TRAVIS (GUITAR 2)
e|-9-----9-----9----7-----7------9-----12------9--------------------|
B|---7-7---7-7---7----5-5---5--5---7-7----10-----7-7-----7----------|
G|-------------------------------------------9-------9-9---9-9------|
D|------------------------------------------------------------------|
A|------------------------------------------------------------------|
E|------------------------------------------------------------------|

CLAUDIO (GUITAR 1)
e|---------------------------|
B|---------------------------|
G|---------------------------|
D|-4-4-4-4-4-4-4-4-2/---x-x--|
A|-4-4-4-4-4-4-4-4-2/---x-x--|
E|-2-2-2-2-2-2-2-2-0/---x-x--|

TRAVIS (GUITAR 2)
E|-9-----9-----9----7--|
B|---7-7---7-7---7--5--|
G|---------------------|
D|---------------------|
A|---------------------|
E|---------------------|

CLAUDIO (GUITAR 1)
e|----------------------------------------------------------------|
B|----------------------------------------------------------------|
G|------6-----------7-7-7------------6----------------------------|
D|-7-7--6--4--2--4--7-7-7-5-5---7-7--6--4--2--4--2-2-2-2-2---7-7--|
A|-7-7--4--4--2--4--5-5-5-5-5---7-7--4--4--2--4--2-2-2-2-2---7-7--|
E|-5-5-----2--0--2--------3-3---5-5-----2--0--2--0-0-0-0-0---5-5--|

TRAVIS (GUITAR 2)
e|----------------------------------------------------------------------|
B|-10--10--10--10--10--10-----------10--10--10--10--10--10--------------|
G|---9---9---9---9---9---9-6-7-9-6----9---9---9---9---9---9--9-6-7-9-6--|
D|----------------------------------------------------------------------|
A|----------------------------------------------------------------------|
E|----------------------------------------------------------------------|

CLAUDIO (GUITAR 1)
e|----------------------------------|
B|----------------------------------|
G|----------------------------------|
D|-4-4-4-4-4-4-4-4-7-7-7-7-7-7-7-7--|
A|-2-2-2-2-2-2-2-2-5-5-5-5-5-5-5-5--|
E|----------------------------------|

TRAVIS (GUITAR 2)
e|---------------------------------|
B|---------------------------------|
G|-9-9-9-7-7-6-6-6-6-7-6-----------|
D|-----------------------7-7-7-7-7-|
A|---------------------------------|
E|---------------------------------|


[Verse 2]

CLAUDIO (GUITAR 1)
  PM..................................................... .............................
e|---------------------------------------------------------------------------------------|
B|---------------------------------------------------------------------------------------|
G|------6-----------7-7-7------------6----------------------------6-----------7-7-7-7-7--|
D|-7-7--6--4--2--4--7-7-7-5-5---7-7--6--4--2--4--2-2-2-2-2---7-7--6--4--2--4--7-7-7-7-7--|
A|-7-7--4--4--2--4--5-5-5-5-5---7-7--4--4--2--4--2-2-2-2-2---7-7--4--4--2--4--5-5-5-5-5--|
E|-5-5-----2--0--2--------3-3---5-5-----2--0--2--0-0-0-0-0---5-5-----2--0--2-------------|

    PM...........    
e|----------------------------------|
B|----------------------------------|
G|----------------------------------|
D|-4-4-4-4-4-4-4-4/7-7-7-7-7-7-7-7--|
A|-2-2-2-2-2-2-2-2/5-5-5-5-5-5-5-5--|
E|----------------------------------|

TRAVIS (GUITAR 2)
e|---------------------------------|
B|-------------------7~~~~~--------|
G|---------------------------------|
D|----------------------7~~~~~~~~--|
A|---------------------------------|
E|---------------------------------|


[Chorus]
CLAUDIO (GUITAR 1)
e|------------------------------------------------------------------|
B|------------------------------------------------------------------|
G|-------------------------------------------------7-7-7-7-7-7------|
D|-4-4-4-4-4-4-4-4-2-2-2-2-2-2-2-2-7-7-7-7-7-7-7-7-7-7-7-7-7-7-X-X--|
A|-4-4-4-4-4-4-4-4-2-2-2-2-2-2-2-2-7-7-7-7-7-7-7-7-5-5-5-5-5-5-X-X--|
E|-2-2-2-2-2-2-2-2-0-0-0-0-0-0-0-0-5-5-5-5-5-5-5-5-------------X-X--|

TRAVIS (GUITAR 2)
e|-9-----9-----9----7-----7------9-----12------9--------------------|
B|---7-7---7-7---7----5-5---5--5---7-7----10-----7-7-----7----------|
G|-------------------------------------------9-------9-9---9-9------|
D|------------------------------------------------------------------|
A|------------------------------------------------------------------|
E|------------------------------------------------------------------|

CLAUDIO (GUITAR 1)
e|------------------------------------------------------------------|
B|------------------------------------------------------------------|
G|-------------------------------------------------7-7-7-7-7-7-7-7--|
D|-4-4-4-4-4-4-4-4-2-2-2-2-2-2-2-2-7-7-7-7-7-7-7-7-7-7-7-7-7-7-7-7--|
A|-4-4-4-4-4-4-4-4-2-2-2-2-2-2-2-2-7-7-7-7-7-7-7-7-5-5-5-5-5-5-5-5--|
E|-2-2-2-2-2-2-2-2-0-0-0-0-0-0-0-0-5-5-5-5-5-5-5-5------------------|

TRAVIS (GUITAR 2)
e|-9-----9-----9----7-----7------9-----12------9--------------------|
B|---7-7---7-7---7----5-5---5--5---7-7----10-----7-7-----7-----7----|
G|-------------------------------------------9-------9-9---9-9---9--|
D|------------------------------------------------------------------|
A|------------------------------------------------------------------|
E|------------------------------------------------------------------|

CLAUDIO (GUITAR 1)
e|------------------------------------------------------------------|
B|------------------------------------------------------------------|
G|-------------------------------------------------7-7-7-7-7-7------|
D|-4-4-4-4-4-4-4-4-2-2-2-2-2-2-2-2-7-7-7-7-7-7-7-7-7-7-7-7-7-7-X-X--|
A|-4-4-4-4-4-4-4-4-2-2-2-2-2-2-2-2-7-7-7-7-7-7-7-7-5-5-5-5-5-5-X-X--|
E|-2-2-2-2-2-2-2-2-0-0-0-0-0-0-0-0-5-5-5-5-5-5-5-5-------------X-X--|

TRAVIS (GUITAR 2)
e|-9-----9-----9----7-----7------9-----12------9--------------------|
B|---7-7---7-7---7----5-5---5--5---7-7----10-----7-7-----7----------|
G|-------------------------------------------9-------9-9---9-9------|
D|------------------------------------------------------------------|
A|------------------------------------------------------------------|
E|------------------------------------------------------------------|

CLAUDIO (GUITAR 1)
e|---------------------------|
B|---------------------------|
G|---------------------------|
D|-4-4-4-4-4-4-4-4-2/---x-x--|
A|-4-4-4-4-4-4-4-4-2/---x-x--|
E|-2-2-2-2-2-2-2-2-0/---x-x--|

TRAVIS (GUITAR 2)
E|-9-----9-----9----7--|
B|---7-7---7-7---7--5--|
G|---------------------|
D|---------------------|
A|---------------------|
E|---------------------|

CLAUDIO (GUITAR 1)
e|---------------------------------------------------------------------------------------|
B|---------------------------------------------------------------------------------------|
G|------6-----------7-7-7------------6----------------------------6-----------7-7-7-7-7--|
D|-7-7--6--4--2--4--7-7-7-5-5---7-7--6--4--2--4--2-2-2-2-2---7-7--6--4--2--4--7-7-7-7-7--|
A|-7-7--4--4--2--4--5-5-5-5-5---7-7--4--4--2--4--2-2-2-2-2---7-7--4--4--2--4--5-5-5-5-5--|
E|-5-5-----2--0--2--------3-3---5-5-----2--0--2--0-0-0-0-0---5-5-----2--0--2-------------|

TRAVIS (GUITAR 2)
e|-9---9---9---9--9--9--9--9-----------------------------------------------------------------|
B|---7---7---7--7--7--7--7--7----------------------------------------------------------------|
G|------------------------------6---6---6---6---6--6---6--6--9---9---9---9---9---9---9---9---|
D|--------------------------------7---7---7---7--7---7--7------7---7---7---7---7---7---7---7-|
A|-------------------------------------------------------------------------------------------|
E|-------------------------------------------------------------------------------------------|

CLAUDIO (GUITAR 1)
e|---------------------------------------|
B|---------------------------------------|
G|---------------------------------------|
D|---------------------------------------|
A|---------------------------------------|
E|---------------------------------------|

TRAVIS (GUITAR 2)
e|---------------------------------------| 
B|-10---10---10---10---10---10-----------|
G|----9----9----9----9----9----9-6-7-9-6-|
D|---------------------------------------|
A|---------------------------------------|
E|---------------------------------------|


[Bridge]
CLAUDIO (GUITAR 1)
e|----------------------------------------------------------------------|
B|----------------------------------------------------------------------|
G|----------------------------------------------------------------------|
D|-77--7~~~~~~~~~~~~~~~~~~~~~~~~~~~~--44--4~~~~~~~~~~~~~~~~~~~~~~~~~~~--|
A|-77--7~~~~~~~~~~~~~~~~~~~~~~~~~~~~--44--4~~~~~~~~~~~~~~~~~~~~~~~~~~~--|
E|-55--5~~~~~~~~~~~~~~~~~~~~~~~~~~~~--22--2~~~~~~~~~~~~~~~~~~~~~~~~~~~--|

TRAVIS (GUITAR 2)
e|---------[5]----[5]~~~~-----------[7]--[7]~~~~~~~------[7]~~~~~~~------|
B|-------------------------[7]~~~~~------------[7]~~~~~~~~~~~---[7]~~~~--|
G|-----------------------------------------------------------------------|
D|-----------------------------------------------------------------------|
A|-----------------------------------------------------------------------|
E|-----------------------------------------------------------------------|

CLAUDIO (GUITAR 1)
e|------------------------------------------------------------------------------|
B|------------------------------------------------------------------------------|
G|------------------------------------------------------------------------------|
D|-22-2~~~~~~~~~~~~~~~~~~~~~~~~~~~~~~~~~~~~~~~~~~~~~~~~~~~~~~~~~~~~~~~~~~~~~~~--|
A|-22-2~~~~~~~~~~~~~~~~~~~~~~~~~~~~~~~~~~~~~~~~~~~~~~~~~~~~~~~~~~~~~~~~~~~~~~~--|
E|-00-0~~~~~~~~~~~~~~~~~~~~~~~~~~~~~~~~~~~~~~~~~~~~~~~~~~~~~~~~~~~~~~~~~~~~~~~--|

TRAVIS (GUITAR 2)
e|------------------------------------------------------------------------------|
B|-10---10---10---10---10---10------------10---10---10---10---10--10------------|
G|----9----9----9----9----9----9-6-7-9-6-----9----9----9----9----9---9-6-7-9-6--|
D|------------------------------------------------------------------------------|
A|------------------------------------------------------------------------------|
E|------------------------------------------------------------------------------|
 
CLAUDIO (GUITAR 1)                       PM-------------------
e|------------------------------------------------------------------|
B|------------------------------------------------------------------|
G|-7~~~~~~~~~~~~~~~~~~~~~~~~~~~~~~~~~~~--7-7-7-7-7-7-7-7-7-7-7--/7--|
D|-7~~~~~~~~~~~~~~~~~~~~~~~~~~~~~~~~~~~--7-7-7-7-7-7-7-7-7-7-7--/7--|
A|-5~~~~~~~~~~~~~~~~~~~~~~~~~~~~~~~~~~~--5-5-5-5-5-5-5-5-5-5-5--/5--|
E|------------------------------------------------------------------|


[Chorus]
e|------------------------------------------------------------------|
B|------------------------------------------------------------------|
G|-------------------------------------------------7-7-7-7-7-7------|
D|-4-4-4-4-4-4-4-4-2-2-2-2-2-2-2-2-7-7-7-7-7-7-7-7-7-7-7-7-7-7-X-X--|
A|-4-4-4-4-4-4-4-4-2-2-2-2-2-2-2-2-7-7-7-7-7-7-7-7-5-5-5-5-5-5-X-X--|
E|-2-2-2-2-2-2-2-2-0-0-0-0-0-0-0-0-5-5-5-5-5-5-5-5-------------X-X--|

TRAVIS (GUITAR 2)
e|-9-----9-----9----7-----7------9-----12------9--------------------|
B|---7-7---7-7---7----5-5---5--5---7-7----10-----7-7-----7----------|
G|-------------------------------------------9-------9-9---9-9------|
D|------------------------------------------------------------------|
A|------------------------------------------------------------------|
E|------------------------------------------------------------------|

CLAUDIO (GUITAR 1)
e|------------------------------------------------------------------|
B|------------------------------------------------------------------|
G|-------------------------------------------------7-7-7-7-7-7-7-7--|
D|-4-4-4-4-4-4-4-4-2-2-2-2-2-2-2-2-7-7-7-7-7-7-7-7-7-7-7-7-7-7-7-7--|
A|-4-4-4-4-4-4-4-4-2-2-2-2-2-2-2-2-7-7-7-7-7-7-7-7-5-5-5-5-5-5-5-5--|
E|-2-2-2-2-2-2-2-2-0-0-0-0-0-0-0-0-5-5-5-5-5-5-5-5------------------|

TRAVIS (GUITAR 2)
e|-9-----9-----9----7-----7------9-----12------9--------------------|
B|---7-7---7-7---7----5-5---5--5---7-7----10-----7-7-----7-----7----|
G|-------------------------------------------9-------9-9---9-9---9--|
D|------------------------------------------------------------------|
A|------------------------------------------------------------------|
E|------------------------------------------------------------------|

CLAUDIO (GUITAR 1)
e|------------------------------------------------------------------|
B|------------------------------------------------------------------|
G|-------------------------------------------------7-7-7-7-7-7------|
D|-4-4-4-4-4-4-4-4-2-2-2-2-2-2-2-2-7-7-7-7-7-7-7-7-7-7-7-7-7-7-X-X--|
A|-4-4-4-4-4-4-4-4-2-2-2-2-2-2-2-2-7-7-7-7-7-7-7-7-5-5-5-5-5-5-X-X--|
E|-2-2-2-2-2-2-2-2-0-0-0-0-0-0-0-0-5-5-5-5-5-5-5-5-------------X-X--|

TRAVIS (GUITAR 2)
e|-9-----9-----9----7-----7------9-----12------9--------------------|
B|---7-7---7-7---7----5-5---5--5---7-7----10-----7-7-----7----------|
G|-------------------------------------------9-------9-9---9-9------|
D|------------------------------------------------------------------|
A|------------------------------------------------------------------|
E|------------------------------------------------------------------|

CLAUDIO (GUITAR 1)
e|---------------------------|
B|---------------------------|
G|---------------------------|
D|-4-4-4-4-4-4-4-4-2/---x-x--|
A|-4-4-4-4-4-4-4-4-2/---x-x--|
E|-2-2-2-2-2-2-2-2-0/---x-x--|

TRAVIS (GUITAR 2)
E|-9-----9-----9----7--|
B|---7-7---7-7---7--5--|
G|---------------------|
D|---------------------|
A|---------------------|
E|---------------------|

CLAUDIO (GUITAR 1)
e|---------------------------------------------------------------------------------------|
B|---------------------------------------------------------------------------------------|
G|------6-----------7-7-7------------6----------------------------6-----------7-7-7-7-7--|
D|-7-7--6--4--2--4--7-7-7-5-5---7-7--6--4--2--4--2-2-2-2-2---7-7--6--4--2--4--7-7-7-7-7--|
A|-7-7--4--4--2--4--5-5-5-5-5---7-7--4--4--2--4--2-2-2-2-2---7-7--4--4--2--4--5-5-5-5-5--|
E|-5-5-----2--0--2--------3-3---5-5-----2--0--2--0-0-0-0-0---5-5-----2--0--2-------------|

TRAVIS (GUITAR 2)
e|---------------------------------------|x3
B|-10---10---10---10---10---10-----------|
G|----9----9----9----9----9----9-6-7-9-6-|
D|---------------------------------------|
A|---------------------------------------|
E|---------------------------------------|

CLAUDIO (GUITAR 1)
    PM...........    PM...........
e|---------------------------------|
B|---------------------------------|
G|---------------------------------|
D|-4-4-4-4-4-4-4-4/7-7-7-7-7-7-7-7-|
A|-2-2-2-2-2-2-2-2/5-5-5-5-5-5-5-5-|
E|---------------------------------|

TRAVIS (GUITAR 2)
e|---------------------------------|
B|---------------------------------|
G|-9-9-9-7-7-6-6-6-6-7-6-----------|
D|-----------------------7-7-7-7-7-|
A|---------------------------------|
E|---------------------------------|

CLAUDIO (GUITAR 1)
e|----------------------------------------------|
B|----------------------------------------------|
G|-7--7-7--7-7-7--7--7-7--7-7-7--7--7-7--7-7-7--|
D|-7--7-7--7-7-7--7--7-7--7-7-7--7--7-7--7-7-7--|
A|-5--5-5--5-5-5--4--4-4--4-4-4--5--5-5--5-5-5--|
E|-------------------------------5--5-5--5-5-5--|

TRAVIS (GUITAR 2)
LET RING ~~~~~~~~~~~~~~~~~~~~~~~~~~~~~~~~~~~~~~~
e|-10-------10----12----9----10----10-------10--|
B|-------9------------------------------9-------|
G|----------------------------------------------|
D|----------------------------------------------|
A|----------------------------------------------|
E|----------------------------------------------|

CLAUDIO (GUITAR 1)
e|-------------------------|
B|-------------------------|
G|--7-7-7-7-7-7-7-7--------|
D|--7-7-7-7-7-7-7-7--7~~~--|
A|--5-5-5-5-5-5-5-5--7~~~--|
E|-------------------5~~~--|

TRAVIS (GUITAR 2)
LET RING ~~~~~~~~~~~~~~~~~
e|-10---------10-----------|
B|-------9-----------10----|
G|--------------------9----|
D|-------------------------|
A|-------------------------|
E|-------------------------|

************************************

| x  Dead note
| /  Slide up
| ~  Vibrato

************************************

            
            
Suggest correction
Creating personal tab
Creating personal tab
You can edit any tab online and save it as your Personal.

You can edit, replace or remove any tab part or add personal notes – all changes will be seen only by you.

Personal tabs can be accessed anytime from any device, even offline.
Learn more »
comments
print report bad tab
2 comments total.
0 reply
Guns N' Chains 273 Oct 28, 2015 03:20 PM

After listening and playing through a few times, sounds pretty good. Except I think in the intro's with Claudio's guitar part, he slides down after the 2nd mute note/pick scrap thing. At least that is what I'm hearing. Overall, I think this is pretty good.

+1 reply
zombie191 10 Nov 24, 2015 05:43 AM

In the chorus , pretty sure the first note i not 3-5-5 , but 2-4-4. Great tab !

guest
You may want to rate the tab now too:
select rating
Wanna post a correction for this tab? Suggest correction