Oops, an error
Loading. Please wait.

Junesong Provision Acoustic Tab

version 1
version 1

Whole song

12,787 views 12 this week
2 commentsread comments
1 2 3 4 5
worth learning
x 5
add to favorites
launch autoscroll
font size
0
reset
how to read this tab
guitar tuner
Tab Pro tools
  • play this tab
  • loop segment
  • change instrument
  • show fretboard
  • metronome
Autoscroll
slow
fast
+/-
esc
set tempo
stop
This is completely created from just listening to the song and making it up on the 
till it sounds right. ENJOY!! (Drop D tuning required)

Don't flame me if you don't like it, go write yur own.

(p.m.) ¬¬¬ = palm mute

--------------------------------------------------------|
--------------------------------------------------------|
--------------------------------------------------------|
-9-9--0-0--4-4--0--0-0--7--7-7-7-7-7-7-7-7-7--7-7-7-7-7-|
-9-9--0-0--5-5--0--0-0--5--5-5-5-5-5-5-5-5-5--5-5-5-5-4-|
-9-9--0-0--4-4--0--0-0--5--5-5-5-5-5-5-5-5-5--5-5-5-5-4-|
p.m.                       ¬¬¬¬¬¬¬¬¬¬¬¬¬¬¬¬¬

--------------------------------------------------------|
--------------------------------------------------------|
--------------------------------------------------------|
-0------4-0------7---7---7---7---7---7---7---7----------|
-0------5-0------5---5---5---5---5---5---5---5----------|
-0------4-0------5---5---5---5---5---5---5---5----------|

--------------------------------------------------------|
----------------8--6--6--5--5--6------------------------|
------------7-------------------------------------------|
------------7------------------------2----------2-------|
------------5----------------------1------1-1-1---------|
------0-0---0-------------------------------------------|
p.m.  ¬¬¬

--------------------------------------------------------|
-----8--6--6--5--5--10----------------------------------|
-7------------------------------------------------------|
-7-------------------------2------------2---------------|
-5-----------------------1--------1-1-1-----------------|
-0------------------------------------------------------|

--------------------------------------------------------|
-----8--6--6--5--5--6-----------------------------------|
-7------------------------------------------------------|
-7------------------------2------------2----------------|
-5----------------------1--------1-1-1------------------|
-0------------------------------------------------------|

--------------------------------------------------------|
--------------------------------------------------------|
-7------7--7--7-----------------------------------------|
-7------7--7--7--7------7-------------------------------|
-5------5--5--5--5------5-------------------------------|
-0------0--0--0--8------8-------------------------------|

-----------9------------------------------9-------------|
-----7-------5---7-5------------7-----------5---7-5-----|
-7-----7-6-----------7------7-----7---7-6-----------7---|
--------------------------------------------------------|
--------------------------------------------------------|
--------------------------------------------------------|

-----------9--------------------------------------------|
-----7-------5---7-5------------------------------------|
-7-----7-6-----------7----------------------------------|
--------------------------------------------------------|
--------------------------------------------------------|
--------------------------------------------------------|

--------------------------------------------------------|
--------------------------------------------------------|
--------------------------------------------------------|
------7-7-7-7-7--7-7-7-7-7-7--4-4-4-4-4-4-4--4--4-4--4--|
------5-5-5-5-5--5-5-5-5-5-5--5-5-5-5-5-5-5--5--5-5--5--|
--------------------------------------------------------|
p.m.  ¬¬¬¬¬¬¬    ¬¬¬¬¬¬¬¬¬    ¬¬¬¬¬¬¬¬¬¬¬

--------------------------------------------------------|
--------------------------------------------------------|
--------------------------------------------------------|
-5-4-0-7---0-4-5-0--0------4------5---------------------|
--------------------------------------------------------|
--------------------------------------------------------|

--------------------------------------------------------|
--------------------------------------------------------|
-4-4--4-4--4-4--4-4--4-4--4-4----4----4----4----4-------|
-5-5--5-5--5-5--5-5--5-5--5-5----5----5----5----5-------|
-5-5--5-5--5-5--5-5--5-5--5-5----5----5----5----5-------|
--------------------------------------------------------|

--------------------------------------------------------|
--------------------------------------------------------|
-4-4--4-4--4-4--4-4--4-4--4-4----4----4----4----4-------|
-5-5--5-5--5-5--5-5--5-5--5-5----5----5----5----5-------|
-5-5--5-5--5-5--5-5--5-5--5-5----5----5----5----5-------|
--------------------------------------------------------|

--------------------------------------------------------|
--------------------------------------------------------|
--------------------------------------------------------|
-9----4----9----4--4--4----9----4----9----4--4--4-------|
-9----5----7----5--5--5----9----5----7----5--5--5-------|
--------------------------------------------------------|

--------------------------------------------------------|
--------------------------------------------------------|
--------------------------------------------------------|
-9----4----9----4--4--4----9----4----9----4--4--4-------|
-9----5----7----5--5--5----9----5----7----5--5--5-------|
--------------------------------------------------------|

--------------------------------------------------------|
--------------------------------------------------------|
--------------------------------------------------------|
-4--4-4-4--5\2--2-2-2--4\0--0-0-0-0--0-0----0-0---------|
-5--5-5-5--5\2--2-2-2--2\0--0-0-0-0--0-0----0-0---------|
--------------------------------------------------------|
p.m.¬¬¬¬¬       ¬¬¬¬¬       ¬¬¬¬¬¬¬

-------------------------------------------------------------|
-------------------------10----------------------------10----|
-11-11-11-12-11-11-11-12----12-11-11-11-12-11-11-11-12----12-|
-------------------------------------------------------------|
-------------------------------------------------------------|
-------------------------------------------------------------|

----------12-------12-------12-------------------------------|
-------------------------------------------------------------|
-11-11-11----11-11----11-11----11\---------------------------|
-------------------------------------------------------------|
-------------------------------------------------------------|
-------------------------------------------------------------|

-------------------------------------------------------------|
-------------------------------------------------------------|
-------------------------------------------------------------|
-10-10--10-10--9--9---9--9---9--9--7--7----------------------|
-10-10--10-10--10-10--10-10--10-10-10-10---------------------|
-------------------------------------------------------------|

-------------------------------------------------------------|
-------------------------------------------------------------|
-------------------------------------------------------------|
-5-5--5-5--4-4--4--4--4-4-4-4--5--5-5-5-5----5--5-5-5-5------|
-5-5--5-5--5-5--5--5--5-5-5-5--5--5-5-5-5----5--5-5-5-5------|
-------------------------------------------------------------|

-------------------------------------------------------------|
-------------------------------------------------------------|
-4--4----4-4-4-4----4--4----4-4-4-4\0------------------------|
-5--5----5-5-5-5----5--5----5-5-5-5\0------------------------|
-5--5----5-5-5-5----5--5----5-5-5-5\0------------------------|
-------------------------------------------------------------|


This is my first attempt at tabbing.  :)
It took a lot of time and effort, rate and comment PLEASE!!
comments
print report bad tab
2 comments total.
+1 reply
MR_KNOT wrote on March 7 2011, 07:49 pm

ummm, no. not the best

0 reply
jbmetal55 wrote on July 8 2011, 08:30 pm

This tab is awful anyone who knows anything about guitar should know to play F#,D and F#(octave) together sounds like complete shit.

I want to post or [tab]
guest
You may want to rate the tab now too:
select rating
Please do not post tabs as comments. Select "correction" instead!