Oops, an error
Loading. Please wait.

Junesong Provision Tab

version 2
version 2

Acoustic

Whole song

Interactive

8,455 views 12 this week
no commentswrite comment
1 2 3 4 5
accurate
x 5
add to favorites
launch autoscroll
font size
0
reset
how to read this tab
guitar tuner
Autoscroll
slow
fast
+/-
esc
set tempo
stop
Help us to improve Ultimate-Guitar.com Take our survey!
×
Difficulty
Tuning
intermediate
D A D G B E
"Junesong Provision Acoustic"

by Coheed and Cambria...


!! Dropped D (DADGBE) !!

!!IMPORTANT!!!!IMPORTANT!!IMPORTANT!!IMPORTANT!!

This song can be easier to play with a capo on the first fret (I believe this is
the way its played). The tab below its to play it with out it, if you use capo the 
on
tab will remain the same, I mean, 7 will be literally still the seventh fret, you will 
instead of play number 1 with your finger (you wont be able actually, there will be a
you will just play the string on the air, everything else will remain the same. I know 
was a pretty dumb explanation, but you never know...


Alright, the following will be named "RIFF #1"


E -----------------------------------------------------|
B -----------------------------------------------------|
G -5-5-5-----------------------------------------------|
D -5-5-5--1-1-1--5-5-5--1-1-1--5-5--1--8-8-8-8-8-8-8-8-|
A -3-3-3--1-1-1--5-5-5--1-1-1--5-5--1--6-6-6-6-6-6-6-6-|
D --------1-1-1--5-5-5--1-1-1--5-5--1--6-6-6-6-6-6-6-6-|


E -----------------------------------------------------|
B -----------------------------------------------------|
G ----8-8-8-8------------------------------------------|
D -0--8-8-8-8-0----------------------------------------|
A -0--6-6-6-6-0----------------------------------------|
D -----------------------------------------------------|


- REPEAT "RIFF #1" AS MANY TIMES NECESSARY, I REFUSE TO COUNT


at 00:48 ...

E -----------------------------------------------------|
B -----------------------------------------------------|
G -----------------------------------------------------|
D -1---------------------------------------------------|
A -1------(give a little taps to the guitar)-----------|
D -1---------------------------------------------------|


- AND AGAIN, REPEAT "RIFF #1" AS MANY TIMES NECESSARY


and then!, at 01:16 (the following is not 100% accurate, but yet very close)

E ------------------------------------------------------|
B ------------------------------------------------------|
G ------------------------------------------------------|
D -1--------------------6-1-----------------------------|
A -1--------------------6-1-----------------------------|
D -1--------------------6-1-----------------------------|


E ---4-------4---------4-------4--------4--------------|
B -----4---4---4-----4---4---4---4----4-4-4-4--6p4-6p4-|
G ------------------------------------6-6-6-6----------|
D -6-----6-------6-5------------------6---6-6--6---6---|
A -------------------------0--------4------------------|
D -----------------------------------------------------|


E -----------------------------------------------------|
B ---6-4-----------------------------------------------|
G -----------------------------------------------------|
D -6-6-6-----------------------------------------------|
A -----------------------------------------------------|
D -----------------------------------------------------|


- REPEAT THE ABOVE AS MANY TIMES NECESSARY


and then!, at 01:44

E -----------------------------------------------------|
B -4----6p4-6p4---6p4--4----6p4-6p4---6p4--------------|
G -6-------------------6-------------------------------|
D -6----6---6---6-6----6----6---6---6-6----------------|
A -4-------------------4-------------------------------|
D -----------------------------------------------------|


The following part saddly is the less accurate part of my tab :( , did my best. You have
listen carefully, its hard to hear the notes and follow the "rhythm")

at 1:51

E -----------------------------------------------------|
B ----------------------------4------------------------|
G ---1----4-4-4------0----------4--------3-------------|
D ---1----4-4-4------5----4----------------------------|
A -1-1----2-2-2------5--2----------2-2-2---------------|
D -1-1-----------5-5-5---------------------------------|


at 2:17

E -----------------------------------------------------|
B -----------------------------------------------------|
G -------3--------3---------3--------------------------|
D -----------------------------------------------------|
A -2-2-2-----2--2-----2-2-2----------------------------|
D -----------------------------------------------------|


at 2:22

E -------3-----10-1--3---3----------3-----10-1--3-1----|
B -----4---4-3---------1----------4---4-3-----------3--|
G -----------------------------------------------------|
D -1--------------------------1------------------------|
A -1--------------------------1------------------------|
D -1--------------------------1------------------------|


E -----3-----10-1--3-1----------------------------------|
B ---4---4-3-----------3--------------------------------|
G -----------------------------------0-------0----------|
D -1------------------------1/6------6-------6--1/5-----|
A -1------------------------1/6--6-6-6-6-6-6-6--1/5-5-5-|
D -1------------------------1/6--6-6-6-6-6-6-6--1/5-5-5-|


E -----------------------------------------------------|
B -----------------------------------------------------|
G -0-------0-------------------------------------------|
D -5-------5-------------------------------------------|
A -5-5-5-5-5-------------------------------------------|
D -5-5-5-5-5-------------------------------------------|


- REPEAT THE ABOVE AGAIN


and then, at 2:57

(this is the part when you start saying "I think I am gonna use that capo")

Watch out!, there are some "8's" around there...

E -----------------------------------------------------|
B -----------------------------------------------------|
G -------3---------3-----------------------------------|
D -------3---------3------5-----6--1-6-6-6-6-6-6-6-6-1-|
A -6-5-1-1-1-6/5-1-1------5-----6--1-6-6-6-6-6-6-6-6-1-|
D -6-5-1---1-6/5-1--------5-----6--1-6-6-6-6-6-6-6-6-1-|


E -----------------------------------------------------|
B -----------------------------------------------------|
G -----------------------------------------------------|
D -6-6-6-6-8-8-8-8-1-6-6-6-6-6-6-6-6-1-6-6-6-6-8-8-8-8-|
A -6-6-6-6-6-6-6-6-1-6-6-6-6-6-6-6-6-1-6-6-6-6-6-6-6-6-|
D -6-6-6-6-6-6-6-6-1-6-6-6-6-6-6-6-6-1-6-6-6-6-6-6-6-6-|


at 3:11

E -----------------------------------------------------|
B -----------------------------------------------------|
G -----------------------------------------------------|
D -10-10-10--1-1-1--6-6-6--1/3-3-3---------------------|
A -10-10-10--1-1-1--6-6-6--1/3-3-3---------------------|
D -10-10-10--1-1-1--6-6-6--1/3-3-3---------------------|


REPEAT THE ABOVE AS MANY TIMES NECESSARY


at 3:22

E -----------------------------------------------------|
B -----------------------------------------------------|
G -----------------------------------------------------|
D -6-6-6-6-6-6-6-6-1-6-6-6-6-8-8-8-8-1-6-6-6-6-6-6-6-6-|
A -6-6-6-6-6-6-6-6-1-6-6-6-6-6-6-6-6-1-6-6-6-6-6-6-6-6-|
D -6-6-6-6-6-6-6-6-1-6-6-6-6-6-6-6-6-1-6-6-6-6-6-6-6-6-|


E -----------------------------------------------------|
B -----------------------------------------------------|
G -----------------------------------------------------|
D -1-6-6-6-6-8-8-8-8-----------------------------------|
A -1-6-6-6-6-6-6-6-6-----------------------------------|
D -1-6-6-6-6-6-6-6-6-----------------------------------|


at 3:33

E -----------------------------------------------------|
B -----------------------------------------------------|
G -----------------------------------------------------|
D -10-10-10--1-1-1--6-6-6--1/3-3-3---------------------|
A -10-10-10--1-1-1--6-6-6--1/3-3-3---------------------|
D -10-10-10--1-1-1--6-6-6--1/3-3-3---------------------|


REPEAT THE ABOVE AS MANY TIMES NECESARY


at 3:53

E -----------------------------------------------------|
B -----------------------------------------------------|
G -----------------------------------------------------|
D -6-6-6-6-6-6-6-6-1-6-6-6-6-8-8-8-8-------------------|
A -6-6-6-6-6-6-6-6-1-6-6-6-6-6-6-6-6-------------------|
D -6-6-6-6-6-6-6-6-1-6-6-6-6-6-6-6-6-------------------|

Alright!, you made it so far, the next part is oviusly played with two guitars, ill
one by one, not both at the same time, you will decide wich one to play.

The next part is a bit tricky, long and stretchy fingers will make it easier


at 3:58

E -----------------------------------------------------|
B -----------------------------------------------------|
G -12-12-12-13-12-12-12h15-----------------------------|
D -17-17-17-17-17-17-17--------------------------------|
A -----------------------------------------------------|
D -----------------------------------------------------|


REPEAT THE ABOVE FOREVER....


NOW FOR THE NEXT GUITAR, THAT STARTS AT 4:05

E ------------------------------------------------------|
B ------------------------------------------------------|
G ------------------------------------------------------|
D -11-11-11-11--10-10-10-10--10-10-1-1--10-10-10-10--13-|
A -11-11-11-11--10-10-10-10--10-10-1-1--10-10-10-10--13-|
D -11-11-11-11--10-10-10-10--10-10-1-1--10-10-10-10--13-|


E -----------------------------------------------------|
B -----------------------------------------------------|
G -----------------------------------------------------|
D -13-13-13-13--13-13-13-13--13-13-13-13--13-13-13-13--|
A -13-13-13-13--13-13-13-13--13-13-13-13--13-13-13-13--|
D -13-13-13-13--13-13-13-13--13-13-13-13--13-13-13-13--|

E -----------------------------------------------------|
B -----------------------------------------------------|
G -----------------------------------------------------|
D -13-13-13-13--13-13-13-13--13-13-13-13--1-1----------|
A -13-13-13-13--13-13-13-13--13-13-13-13--1-1----------|
D -13-13-13-13--13-13-13-13--13-13-13-13--1-1----------|


REPEAT THE ABOVE UNTIL THE ECONOMY RECOVERS


The chords of the part above can also be replaced like this (can make your life easier)


----   ----|
----   ----|
----   -6--|
-11- = -6--|
-11-   -4--|
-11-   ----|

----   ----|
----   ----|
----   -5--|
-10- = -5--|
-10-   -3--|
-10-   ----|

----   ----|
----   ----|
----   -8--|
-13- = -8--|
-13-   -6--|
-13-   ----|


And thats all....... hope you liked it.......

Please rate....
Suggest correction What's this?
You can suggest a correction to this tab. Community and Mods will review your correction and vote to approve or reject it.
comments
print report bad tab
I want to post or [tab]
guest
You may want to rate the tab now too:
select rating
Please do not post tabs as comments. Select "correction" instead!