Oops, an error
Loading. Please wait.

Junesong Provision Tab

version 2
version 2

Whole song

Interactive

21,148 views 24 this week
5 commentsread comments
1 2 3 4 5
accurate
x 14
add to favorites
launch autoscroll
font size
0
reset
how to read this tab
guitar tuner
Tab Pro tools
  • play this tab
  • loop segment
  • change instrument
  • show fretboard
  • metronome
×
Best way to learn
"Junesong Provision"
Autoscroll
slow
fast
+/-
esc
set tempo
stop
Contributor
-------------------------------------------------------------------------------
                    JUNESONG PROVISION - Coheed and Cambria
-------------------------------------------------------------------------------

Tabbed by: joecool71
Email: mattconnellan@yahoo.com, mconne@lincoln.navy.mil 

Tuning: Drop D (D A D G B E)

Great song. The opening riff really grabs your attention. Also, I'm not sure which
is the lead and which is the rhythm for Phase II or III, so take your pick which to
play. Enjoy!

Intro/Phase I
e|---------------------------------------------------------|
B|---------------------------------------------------------|
G|-4-4-------------------------------------------7-7-7-7-6-|
D|-4-4-0-0-0-4-4-4-0-0-0-0-0-0-5-5-5-5-5-5-5-5-5-7-7-7-7-6-|
A|-2-2-0-0-0-4-4-4-0-0-0-0-0-0-5-5-5-5-5-5-5-5-5-5-5-5-5-4-|
E|-----0-0-0-4-4-4-0-0-0-0-0-0-5-5-5-5-5-5-5-5-5-----------|
         . .   . .   . .   . .   . . . . . . . .
Intro lead (This lead goes over Intro X2, even though this whole part is played once)
e|-----------------------------------------10----------10----------10----------10->
B|----------------------------10--------10----------10----------10----------10---->
G|--------------------------------11h12-------11h12-------11h12-------11h12------->
D|------9-------9----/9--12-9----------------------------------------------------->
A|-9-10---9-10----10-------------------------------------------------------------->
E|-------------------------------------------------------------------------------->

e|--------------------------------------10-------10------------------|
B|----------------------------10--10-10----10-10----10-10------------|
G|--------------------------------------------------------12-11-9-11-|
D|------9-------9----/9--12-9----------------------------------------|
A|-9-10---9-10----10-------------------------------------------------|
E|-------------------------------------------------------------------|

Phase I lead
e|----------------------------------------------------|
B|----------------------------------------------------|
G|----9--11--12p11-11p9-------------------------------|
D|-9--------------------12--12--12--12-12-12-12-12-11-|
A|----------------------------------------------------|
E|----------------------------------------------------|

Fill 1
e|---|
B|---|
G|---|
D|-0-|
A|-0-|
E|-0-|

Phase II
e|--------------------------------------------------------|
B|--------------------------------------------------------|
G|--------------------------------------------------------|
D|-9---------------9-------9--------------9-------9-------|
A|-----12---10h12----12-10---10----10h12----12-10---10----|
E|------------------------------12---------------------12-|

Phase II lead
e|--------------------------------------------------------------------|
B|-8-----8-------8-----8----------------------------------------------|
G|---7-----7-------7-----7---12-------12------------------------------|
D|-----5-----5------------------12-------12----12--14p12-12-14-12-----|
A|---------------------------------10-------10-10--10----10-------0---|
E|-------------4-----7-----9----------------------------------------5-|

Phase III (heavy effects, lots of squeal and whine)
e|-----------------------|
B|-----------------------|
G|----------/10-12-10----|
D|-0-7-5--5-----------12-|
A|-0------5--------------|
E|-0------5--------------|

Phase III lead
e|--------------|
B|--------------|
G|--------------|
D|---7--------7-|
A|-5----5-5-5---|
E|-8----8-8-8---|

Phase IV pt. 1
e|---------9-0----------|
B|---7---------7-5------|
G|-----7-6---------7----|
D|-------------------X4-|
A|----------------------|
E|-0--------------------|

Phase IV pt. 2
e|---------------|
B|-7---7---5---5-|
G|-7---7---7---7-|
D|-5---5---5---5-|
A|---------------|
E|---------------|

Phase IV pt. 1 lead
e|------------------|
B|-7-5-7-5-7-5-7----|
G|-6-6-6------------|
D|---------------X4-|
A|------------------|
E|------------------|

Phase IV pt. 2 lead
e|-0----------|
B|---7-5------|
G|-------7----|
D|---------X8-|
A|------------|
E|------------|

Fill 2
e|------------------------|
B|------------------------|
G|------------------------|
D|-5p4-0-7--4h5-0-0--4--5-|
A|-5p4-0-7--4h5-0-0--4--5-|
E|-5p4-0-7--4h5-0-0--4--5-|

Phase V pt. 1 (chord) (hit this repeatedly)
e|---|
B|---|
G|---|
D|-5-|
A|-5-|
E|-5-|

Phase V pt. 2
e|------------------------------|
B|------------------------------|
G|------------------------------|
D|-9---7---5--5-4---2--4-5-4-X2-|
A|-9---7---5------5-2-----------|
E|-9---7---5--------2-----------|

Phase V pt. 2 lead
e|-----------------------------------------------------|
B|-----------------------------------------------------|
G|-7/9-9-9/11-11-11h12p11---14\12-12-12\11-11-11h12p11-|
D|-----------------------------------------------------|
A|-----------------------------------------------------|
E|-----------------------------------------------------|

Phase VI (the multiplier refers only to the pattern of 10s at the end of the riff)
e|-----------------------------------------------------------------------------------------|
B|-----------------------------------------------------------------------------------------|
G|-----------------------------------------------------------------------------------------|
D|-10-10--10-10--10-9--9-9--9-9--9-12-12--12-12--12-9--9-9--9-9-9-9--10-10--10-10-10-10-X4-|
A|-7--7---7--7---7--7--7-7--7-7--7-10-10--10-10--10-9--9-9--9-9-9-9--10-10--10-10-10-10----|
E|-7--7---7--7---7--7--7-7--7-7--7-10-10--10-10--10-9--9-9--9-9-9-9--10-10--10-10-10-10----|

Phase VI lead
e|----------------------------------------------------12-------12-------------12-------12-|
B|----------------------------------------------------------------------------------------|
G|-11-12-11-11-12-11-11-12-11-11-12-14----11-12-11-11----12-11----12-11-12-11----11-12----|
D|-------------------------------------X3-------------------------------------------------|
A|----------------------------------------------------------------------------------------|
E|----------------------------------------------------------------------------------------|

LYRICS AND RIFF PLACEMENT

[INTRO] 
[INTRO W/ LEAD] X2
[PHASE I W/ LEAD] X4
Good morning sunshine awake when the sun hits the sky
Look up the sounds that surround the day you died
She weeps for me outside, a hole in the ground
And there's one way thinking you might get the upper hand
[FILL 1]
[INTRO W/ LEAD] X4
Dear Newo Ikkin how's Apollo been treating you?
Has he been a good boy since the day I left?
Give him my love and a sweet kiss for his head
'Cause I won't be coming home when you get this I'll be dead
[FILL 1] X2
Norris and Larry, Gloria to nowhere
[PHASE II W/ LEAD] X4
Sir I think you'd better take my hand
And pray we make this one out alive
Captain, we've lost all systems' control
Then son, I'll see you in my sleep
[PHASE II] X4
[PHASE III W/ LEAD] X4
Is it all you've shared with them that makes us paranoid?
Is it the dream that one day you might be something your own?
Is it all you've shared with them that makes us paranoid?
Is it the dreams that make us real?
[PHASE III LEAD] X2
[PHASE IV PT. 1]
I'll miss you and wait for you when you come
[PHASE IV PT. 2 W/ LEAD]
Wrong way, right way, bad luck what God has been giving me
[PHASE IV PT. 1 W/ LEAD]
I'll miss you and wait for you when you come
[PHASE IV PT. 2 W/ LEAD]
Wrong way, right way, bad luck you've gotta be kidding me
[FILL 2]
[PHASE V PT. 1]
I've spent so long sitting down here
[PHASE V PT. 2 W/ LEAD] X2
Paper cut my heart in half and discard the evidence
When it's yours come send me the left half
[PHASE V PT. 1]
Doused in kerosene and torched, blazed blood bath
[PHASE V PT. 2 W/ LEAD] X4
When boy sets fire God knows you've lost at a cost that has no price
When you've purchased guilt stand at attention and make sure you know
Your lines and yourself, you'd say I'll be
[PHASE V PT. 1]
Home alone again waiting
[PHASE VI LEAD]
[PHASE VI W/ LEAD] 
[PHASE VI]
Wait for me all right?
I'm still a boy down there if you want to promise me that
[PHASE VI W/ LEAD] X4
Wait for me all right?
I'm still a boy down there if you want to promise me that
(Wait) Wait for me all right?
I'm still a boy (where's Wednesday?)
Down there (where's Wednesday?)
If you want to promise me that

| /  slide up
| \  slide down
| h  hammer-on
| p  pull-off
| ~  vibrato
| +  harmonic
| x  Mute note
===============================================================================
comments
print report bad tab
5 comments total. Showing first comments.
0 reply
PhantomWuss95 wrote on March 26 2006, 11:31 am

what is with the "phases"

0 reply
Underrated wrote on March 26 2006, 06:14 pm

Since there are far to many parts to each Coheed and Cambria song to call them chorus, verse, etc, I decided to name them numbered phases.

0 reply
Underrated wrote on March 26 2006, 06:14 pm

too, not to

I want to post or [tab]
guest
You may want to rate the tab now too:
select rating
Please do not post tabs as comments. Select "correction" instead!