Oops, an error
Loading. Please wait.

Justice In Murder Tab

version 1
version 1

Whole song

Interactive

3,657 views 1 this week
2 commentsread comments
1 2 3 4 5
x 3
add to favorites
launch autoscroll
font size
0
reset
how to read this tab
guitar tuner
Autoscroll
slow
fast
+/-
esc
set tempo
stop
Help us to improve Ultimate-Guitar.com Take our survey!
×
Difficulty
advanced


e----------------------------------------------------------------------|
g----------------------------------------------------------------------|
b-----------------9----------------------------------------------------|
d--------7799- 10----10-9-1010101010-10-9-99999--9-10-9-7--------------|
a--------000000-------0-0--0-0-0-0-0--0--0-00000--0--------10-8-7------|
e----------------------------------------------------------------------|

this is after the first one

e---------------------------------------------------------------------|
g---------------------------------------------------------------------|
b---------------------------------------------------------------------|
d---------------------------------------------------------------------|
a---------10-8-7-5-3-/8-7-5-3-2-0-------------------------------------|
e---------------------------------------------------------------------|
Suggest correction
Give kudos to tab author, rate the tab!
1 2 3 4 5
comments
print report bad tab
2 comments total.
0 reply
zackvalo16 119 Dec 06, 2007 01:59 PM

what part is this??

0 reply
Guns N' Chains 186 Jun 10, 2013 01:31 PM

What is this?

guest
You may want to rate the tab now too:
select rating
Wanna post a correction for this tab? Suggest correction