Oops, an error
Loading. Please wait.

Key Entity Extraction Ii Holly Wood The Cracked Tab

version 1
version 1

Intro

Interactive

2,023 views 6 this week
7 commentsread comments
1 2 3 4 5
not so good
x 6
add to favorites
launch autoscroll
font size
0
reset
how to read this tab
guitar tuner
Autoscroll
slow
fast
+/-
esc
set tempo
stop
Help us to improve Ultimate-Guitar.com Take our survey!
×
Author
This Is the Intro to Holly Wood the Cracked. Enjoy!

e/----------------------------------------------------|
B/----------------------------------------------------|
G/----------------------------------------------------|
D/----------------------------------------------------|
A/----------------------------------------------------|
E/0-2(x16)0-0-0-0-0-0-0-0-0-2-2-0-0-0-0-0-0-0-0-0-222-|

and the little part at 0:14,

e/-------9-7--|
B/5-5-7-0-----|
Suggest correction
comments
print report bad tab
7 comments total. Showing first comments.
0 reply
dc811 52 wrote on November 30 2012, 08:05 pm

it should be,
E/0-2(x16)0-0-0-0-0-0-0-0-0-2-2-0-0-0-0-0-0-0-0-0-444-|

+1 reply
corza334 20 wrote on December 6 2012, 10:15 pm

Dno why but I here more like


A/ --------------------------6-6-6
E/ 0-0-2-2-0-2-0-2-0-0-2-2-0-6-6-6


And I think its like Drop C. Haven't tried it on the guitar yet.

+1 reply
JimmyStJames97 30 wrote on January 23 2013, 04:49 pm

The hell...? Somebody please put up an actual tab before my brain explodes.

guest
You may want to rate the tab now too:
select rating
Wanna post a correction for this tab? Suggest correction