Oops, an error
Loading. Please wait.

Key Entity Extraction V Sentry The Defiant Tab

3,640 views 18 this week
no commentswrite comment
1 2 3 4 5
accurate
x 5
add to favorites
launch autoscroll
font size
0
reset
how to read this tab
guitar tuner
Tab Pro tools
  • play this tab
  • loop segment
  • change instrument
  • show fretboard
  • metronome
×
Best way to learn
"Key Entity Extraction V Sentry The Defiant"
Autoscroll
slow
fast
+/-
esc
set tempo
stop
Contributor
-------------------------------------------------------------------------------
                             Key Entity Extraction V: Sentry the Defiant - Coheed and Cambria
-------------------------------------------------------------------------------
Tabbed by: Ethan H. (xxINTYWIDFLxx)
E-mail: ethan.hamilton798@gmail.com

Fantastic song off of the new Descension album. This is tabbed the way I play it, so if 
it doesn't sound right to you in some spots, that's why.

Tuning: BEADF#b

Intro - 1st Part, played twice.
Clean electric or acoustic tone.

b |-----7-------------------------------|
F#|---5--5-5-5-----------8-7~~~~~-------|
D |--------------------5----------------|
A |-------------------------------------|
E |-------------------------------------|
B |-0-----------------------------------|

Intro - 2nd Part. Also played twice, distorted tone.

b |-----------------------------------------------------------|
F#|-----------------------------------------------------------|
D |--9-9------------------------------------------------------|
A |--9-9-2-2-2-x-9--9--x-10-10-7--7-7-7-7-7-x-10-10-10-3-3-3--|
E |--7-7-2-2-2-x-10-10-x-10-10-7--7-7-7-7-7-x-10-10-10-3-3-3--|
B |------0-0-0-x-0--0--x-8--8--5--5-5-5-5-5-x-8--8--8--1-1-1--|
      PM [----]

Verse, played four times.

b |---------------------------------------------------------------|
F#|---------------------------------------------------------------|
D |--9-9----------------------------------------------------------|
A |--9-9-2-2-2-x-9--9--x-10-10-7--7-7-7-7-7-x-10-10-10-3-3-3------|
E |--7-7-2-2-2-x-10-10-x-10-10-7--7-7-7-7-7-x-10-10-10-3-3-3------|
B |------0-0-0-x-0--0--x-8--8--5--5-5-5-5-5-x-8--8--8--1-1-1------|
 PM [-------------------------------------------------------------|

Chorus - 1st Part, played once.

b |------------------------------------------------------------------->
F#|------------------------------------------------------------------->
D |---------------5--5-5-5-5-5---------------------------------------->
A |-2--2-2-2-2-2--5--5-5-5-5-5--7--7-7-7-7-7----------5--------------->
E |-2--2-2-2-2-2--3--3-3-3-3-3--7--7-7-7-7-7------------3p2h3p2p0----->
B |-0--0-0-0-0-0----------------5--5-5-5-5-5-5-3-3--3----------------->

b |-------------------------------------------------------------|
F#|-------------------------------------------------------------|
D |---------------5--5-5-5-5-5----------------------------------|
A |-2--2-2-2-2-2--5--5-5-5-5-5--7--7-7-7-7-7--7\5--55-7\5-55----|
E |-2--2-2-2-2-2--3--3-3-3-3-3--7--7-7-7-7-7--7\5--55-7\5-55----|
B |-0--0-0-0-0-0----------------5--5-5-5-5-5--5\3--33-5\3-33----|

Chorus - 2nd Part, played twice.

b |--------------------------------------------------------------|
F#|--------------------------------------------------------------|
D |--9-9---------------------------------------------------------|
A |--9-9-2-2-2-x-9--9--x-10-10-7--7-7-7-7-7-x-10-10-10-3-3-3-----|
E |--7-7-2-2-2-x-10-10-x-10-10-7--7-7-7-7-7-x-10-10-10-3-3-3-----|
B |------0-0-0-x-0--0--x-8--8--5--5-5-5-5-5-x-8--8--8--1-1-1-----|
      PM [----]

Repeat Verse (Four times)

Repeat Chorus - Part 1 (One time)

Repeat Chorus - Part 2 (Two times)

Bridge - Part 1, played three times.

b |-------------------------------------------------|
F#|-------------------------------------------------|
D |-------------------------------------------------|
A |-------------------------------------------------|
E |-----------------5-5-7-7-------------------------|
B |--0--0-8-7-5-7-7---------5-5-8-8-8-7-5-0---------|
     .  . . . . . . . . . . . . . . . . . .

Bridge - Part 2, Chords. (You make rhythm)

b |--------------------------|
F#|--------------------------|
D |------------5-------------|
A |-2-7-3-2----5--7----2-----|
E |-2-7-3-2----3--7----2-----|
B |-0-5-1-0-------5----0-----|

On the C5 chord, start palm muted and slowly release.

Repeat Intro - Part 1 Twice

Repeat Intro - Part 2 Twice

Repeat Chorus - Part 1 Once

Repeat Chorus - Part 2 Twice

Repeat To End:

b |-----------------------------------------------------------|
F#|-----------------------------------------------------------|
D |--9-9------------------------------------------------------|
A |--9-9-2-2-2-x-9--9--x-10-10-7--7-7-7-7-7-x-10-10-10-3-3-3--|
E |--7-7-2-2-2-x-10-10-x-10-10-7--7-7-7-7-7-x-10-10-10-3-3-3--|
B |------0-0-0-x-0--0--x-8--8--5--5-5-5-5-5-x-8--8--8--1-1-1--|
      PM [----]                                     ^
                                                 End Here

***********************************

| /   slide up
| \   slide down
| h   hammer-on
| p   pull-off
| ~   vibrato
| +   harmonic
| x   Mute note
| b   Bend
| pb  Pre-bend
| br  Bend release
| pbr Pre-bend release
| brb Bend release bend

A period ( . ) underneath a note indicates a staccato (not held full length) note.

***********************************
comments
print report bad tab
I want to post or [tab]
guest
You may want to rate the tab now too:
select rating
Please do not post tabs as comments. Select "correction" instead!