Oops, an error
Loading. Please wait.

Mother Superior bass

version 1
version 1

Whole song

4,588 views 1 this week
1 commentread comment
1 2 3 4 5
x 5
add to favorites
×
Save as Personal and add changes to this tab that will be seen only by you. Learn more ›
×
You can save this tab as Personal to edit and correct it or add notes. All changes will be seen only by you. Learn more »
launch autoscroll
font size
0
reset
guitar tuner
edit
Autoscroll
slow
fast
+/-
esc
set tempo
stop
Author
Difficulty
Mother Superior
Coheed And Cambria
Good Apollo, I'm Burning Star IV, Volume 2: No World For Tomorrow

Tabbed By : fender4string
Tuning: Standard

I saw this tab had been requested and, since it's such an awesome song, I
decided to go ahead and try and tab it out.  The tab is probably about 95%
accurate with the only issues being not getting the fills 100% perfect in
the bridge and the outro though what I heard/tabbed is very close to what
the great Mr. Todd played on the album.  Anyway, enjoy the song and please
rate!

Thanks!

~Rest until first pre-chorus~

   Lead in
G|-------------|----------------------------------------|
D|-------------|----------------------------------------|
A|--5----------|--1----1h3----5---------1-----1-3-------|
E|--------5-4--|------------------5-4-------------------|

Chorus
G|----------------------------------------------------------7-9-10-9-7--------|
D|--------------------------------0h2-3----------3-2-----10------------10-8-7-|
A|-1-----1------1h3--3-----3---3---------3-----3-----5------------------------| 2x
E|-----1---1---1---------3---3-------------1----------------------------------|

G|----------------------------------------------|
D|----------------------------------------------|
A|-1-11111-11111-11111-11111h333333-33333-------|
E|----------------------------------------------|

Interlude (Bass solo)
G|--------3-2-----5------------------------------------3--2-------------|
D|---3--------3-----3--3------3---3h5p3p2------------3------0---3-5/7---|
A|-5---5------------------x3----3----------5-3---1----------------------|
E|----------------------------------------------------------------------|

G|-------3-2---------5---------------------------------------3----------|
D|---3-------3-----3---3--x-2-3---------2--3--2-----------x3------------|
A|-5---5---------3----------------3--5----------5-3----1-------x1--0----|
E|--------------------------------------------------------------------3-|

Verse
G|--------2------------------5--------------------------------------3--------0--2-|
D|----3-------x0-2-3-----3-----3-3--------3-----33-2\-----------3-----3----3------|
A|-5-----x--5----------3-------------x3------3----------1-x--x1-------------------|
E|--------------------------------------------------------------------------------|

G|--------2------------------5---------------------------x2------------x2---------0-2--|
D|----3-------x0-2-3-----3-----3-3--------3-----33-2\------3---3-0-3------3--0-2-3-----|
A|-5-----5--5----------3-------------x3------3-----------------------------------------|
E|-------------------------------------------------------------------------------------|

G|--------3-2-----5-----------------------------------2--2--2------------------|
D|---3--------3-----3--3------3-----3--2-----------/3--3--3--3-5-7-------------|
A|-5---5------------------x3----3--------5-3---1-x-----------------5-----------|
E|-----------------------------------------------------------------------5-4---|

G|------------------------------------------------------------------|
D|------------------------------------------------------------------|
A|-11111111111h333333333333-5-------------111111111111133333333333--|
E|--------------------------------5-4-------------------------------|

Chorus (no variations that I can hear)

Transition to bridge (just extend the C note (3 on A) like below)
G|----------------------------------------------------------------------|
D|----------------------------------------------------------------------|
A|-1-11111-11111-11111-11111h333333-33333333333333333333333333333-------|
E|----------------------------------------------------------------------|

Bridge
G|-----------------------------------------------------------|
D|----------------------7------------------------------------| 2x
A|-----3--3---------555---555-x-7-8-------------3333-33333---|
E|-111------1-1-3-1-----------------5555-555555--------------|


Chorus (no variations that I can hear)


Outro
G|-------------------------------------------------------------------|
D|------------------5--------------------------------5---------------|
A|-1--1---1-1--0---------5-----0--1--1---1-1--0----------5----0------|
E|-------1-1------3----3---x3-----------1-1------3-----3---x3--------|

G|------------------------------------------------------------|
D|-----------------3------------------------------------------|
A|-1--1---1-1--0-------5------------------------------0-------|
E|-------1-1-----3---3---x-6-5-111111111111-0000001-0---------|

G|--------------------------------------------------------------------|
D|------------------5----------------------------------5h7p5----------|
A|-1--1---1-1--0---------5-----0--1--1---1-1--0------5--------3--0----|
E|-------1-1------3----3---x3-----------1-1------3--------------------|

G|------------------------------------------------------------|
D|-----------------3------------------------------------------|
A|-1--1---1-1--0-------5---------------------/7777778-7-0-----|
E|-------1-1-----3---3---x-6-5-111111111111-------------------|

G|-------------------------------------------------------------------|
D|------------------------5-5---------------------------5-5----------|
A|-1--1--1-1--0---------------0---1--1---1-1--0--------------0-------|
E|------1-1------3---3---3-3------------1-1------3--3--3-3-----------|

G|------------------------------------------------------------|
D|-----------------3------------------------------------------|
A|-1--1---1-1--0-------5------------------------------0-------|
E|-------1-1-----3---3---x-6-5-111111111111-0000001-0---------|

G|-------------------------------------------------------------------|
D|------------------------5-5---------------------------5-5----------|
A|-1--1--1-1--0---------------0---1--1---1-1--0--------------0-------|
E|------1-1------3---3---3-3------------1-1------3--3--3-3-----------|


G|---------------------------------------|
D|-----------------3---------------------|
A|-1--1---1-1--0-------5-----------------|
E|-------1-1-----3---3---x-6-5-1---------|

| /  slide up
| \  slide down
| h  hammer-on
| p  pull-off
| ~  vibrato
| +  harmonic
| x  Mute note
=================================================================

            
            
Suggest correction
Creating personal tab
Creating personal tab
You can edit any tab online and save it as your Personal.

You can edit, replace or remove any tab part or add personal notes – all changes will be seen only by you.

Personal tabs can be accessed anytime from any device, even offline.
Learn more »
comments
print report bad tab
1 comment total.
0 reply
CBNJ 50 Aug 27, 2013 04:54 PM

Amazing. Coheed really isn't the same without Mic..

guest
You may want to rate the tab now too:
select rating
Wanna post a correction for this tab? Suggest correction